Cifras Web
Alesana

This Is Usually The Part Where People Scream

Alesana

13 acessos

(afinação DADG)

(intro)
1.
G|---------------------------------------------|
D|---------------------------------------------|
A|-------------------------5x--------5x--------|
D|---------------------------------------------|

2.
G|-----------------------------------------------------|
D|-----------------------------------------------------|
A|----------------------------------------0~-00~-00-00-|--x2
D|-0~-00~-00-00-3~-33~-33-33-5~-55~-55-55--------------|

(verse)
"You'll beat me? Bring it on! Bring it on!"
3.
G|-------------------------------------------------------------------------------|
D|---------------------------------------------------------------------33-03-53~-|
A|-------------------------------------------------------------------------------|
D|-0~-000000-00000000-3~-333333-33333333-5~-555555-55555555-0~-000000------------|

"You may think you're clever but you're not..."
4.
G|------------------------------------------------------------------------|
D|------------------------------------------------------------------------|
A|------------------------------------------------------------------------|
D|-00-00-000000--00x--00x--33-33-333333--33x--33x--55-55-555555--55x--55x-|

(pre-Chorus)
"There's no guarantee we'll get out alive..."
5.
G|-----------------------------------------------------------------------|
D|-----------------------------------------------------------------------|
A|-11111111-33333333-55555553-55555553-11111111-33333333-55555555-50000x-|
D|-----------------------------------------------------------------------|

(chorus)
"Welcome to the show, its a story that you've heard a thousand times..."
6.
G|--------------------------------------------------------------------------|
D|--------------------------------------------------------------------------|
A|-11111111-33333333-00000000-00000000-11111111-33333333-555333-555333-5533-|
D|--------------------------------------------------------------------------|

"Welcome to the show, its a chance to save the world or lose the girl..."
7.
G|--------------------------------------------------------------------------|
D|----------------------------5/777777--------------------------------------|
A|-11111111-33333333-00000000----------11111111-33333333-555333-555333-5533-|
D|--------------------------------------------------------------------------|

(outro)
"You may think you've won! But I promise you its not over!!"
8.
G|--------------------------------------------------------|
D|--------------------------------------------------------|
A|--------------------------------------------------------|--x2
D|-0000x--0000x--0000x--0-00x--0000x--0000x--0000x----00x-|

(verse)
"This could be our one last chance to finally rise up..."
9.
G|--------------------------------------------------------------------------------|
D|--------------------------------------------------------------------------------|
A|-55555555-55555555-33333333-33333333-11111111-11111111-0000x-0000x-000000000000-|
D|--------------------------------------------------------------------------------|

"Stand and here we will fight..."
10.
G|----------------------------------------------------|
D|----------------------------------------------------|
A|-5-555-555-555-553-333-333-333-331-111-111-111-110x-|
D|----------------------------------------------------|

(pre-Chorus)
"There's no guarantee we'll get out alive..."
11.
G|-----------------------------------------------------------------------|
D|-----------------------------------------------------------------------|
A|-11111111-33333333-55555553-55555553-11111111-33333333-55555555-50000x-|
D|-----------------------------------------------------------------------|

(chorus)
"Welcome to the show, its a story that you've heard a thousand times..."
12.
G|--------------------------------------------------------------------------|
D|--------------------------------------------------------------------------|
A|-11111111-33333333-00000000-00000000-11111111-33333333-555333-555333-5533-|
D|--------------------------------------------------------------------------|

"Welcome to the show, its a chance to save the world or lose the girl..."
13.
G|--------------------------------------------------------------------------|
D|----------------------------5/777777--------------------------------------|
A|-11111111-33333333-00000000----------11111111-33333333-555333-555333-5533-|
D|--------------------------------------------------------------------------|

(bridge)
"This is the part where you are supposed to scream!"
14.
G|-------------------------------------------------------|
D|-------------------------------------------------------|
A|-------------------------------------------------------|--x2
D|-0000x--0000x--0000000000x--0000x--0000x--0000000000x--|

"When you scream we'll be heroes!!"
15.
G|----------------------------------------|
D|----------------------------------------|
A|----------------------------------------|
D|-0000000~--0000000~--0000000~--0000000x-|

(chorus)
"Welcome to the show, its a story that you've heard a thousand times..."
16.
G|--------------------------------------------------------------------------|
D|--------------------------------------------------------------------------|
A|-11111111-33333333-00000000-00000000-11111111-33333333-555333-555333-5533-|
D|--------------------------------------------------------------------------|

"Welcome to the show, its a chance to save the world or lose the girl..."
17.
G|--------------------------------------------------------------------------|
D|----------------------------5/777777--------------------------------------|
A|-11111111-33333333-00000000----------11111111-33333333-555333-555333-5533-|
D|--------------------------------------------------------------------------|

"Lets save the world!"
18.
G|--------------------------------------------------------------------------|
D|--------------------------------------------------------------------------|
A|-11111111-33333333-555333-555333-5533-11111111-33333333-555333-555333-5~--|
D|--------------------------------------------------------------------------|

TOP cifras de Alesana

  1. Annabel
  2. As You Wish
  3. Sweetheart You Are Sadly Mistaken
  4. And They Call This Tragedy Intro
  5. All Night Dance Parties In The Undeground
  6. Circle Vii: Sins Of The Lion
  7. Goodbye Good Night For Good
  8. The Lover
  9. Ambrosia
  10. Apology Intro

Pela Web