Cifras Web
Alesana

What Goes Around Comes Around

Alesana

13 acessos

G|----------------------------------|
D|----------------------------------|
A|------3(x8)-----5(x8)-------------|(2x)
E|-5(x8)-----3(x8)------------------|
B|----------------------------------|

G|-----------------|
D|-----------------|
A|-----3--3----5---|(2x)
E|-5--5----3--3----|
B|-----------------|

G|----------------------------------|
D|----------------------------------|
A|------3(x8)-----5(x8)-------------|(2x)
E|-5(x8)-----3(x8)------------------|
B|----------------------------------|

G|------------------------------|
D|------------------------------|
A|--------3-3----------5-5-5-5--|(2x)
E|-5-5----------3-3-------------|
B|------------------------------|

G|--------------------------------------------|
D|--------------------------------------------|
A|----------3--3-3--3----------5-5-5-5-5-5-5-5|(4x)
E|-5--5-5--5---------3--3-3--3----------------|
B|--------------------------------------------|

G|-------------------------------------------|
D|-------------------------------------------|
A|-------------------------------------------|
E|-5--3-5-3-5--3-5-3-5--3-5-3-8-8-8-8-6-6-6-6|
B|-------------------------------------------|

(2nd time)
G|-----------------------------------------------------------|
D|-----------------------------------------------------------|
A|-----------------------------------------------------------|
E|-5--3-5-3-5--3-5-3-5--3-5-3-8-8-8-8-6-6-6-6-8-8-8-8-6-6-6-6|
B|-----------------------------------------------------------|

G|-----------------|
D|-----------------|
A|-----3--3----5---|(2x)
E|-5--5----3--3----|
B|-----------------|

G|----------------------------------|
D|----------------------------------|
A|------3(x8)-----5(x8)-------------|(2x)
E|-5(x8)-----3(x8)------------------|
B|----------------------------------|

G|--------------------|
D|--------------------|
A|-----3-3---5-5-5-5--|(2x)
E|-5-5----3-3---------|
B|--------------------|

G|--------------------------------------------|
D|--------------------------------------------|
A|----------3--3-3--3----------5-5-5-5-5-5-5-5|(4x)
E|-5--5-5--5---------3--3-3--3----------------|
B|--------------------------------------------|

G|-------------------------------------------|
D|-------------------------------------------|
A|-------------------------------------------|(x2)
E|-5--3-5-3-5--3-5-3-5--3-5-3-8-8-8-8-6-6-6-6|
B|-------------------------------------------|

G|-------------|
D|-------------|
A|-------------|(x8)
E|-------------|
B|-1--3--5-5---|

G|-------------------------|
D|-------------------------|
A|-------------------------|(x4)
E|--5--3-3-5--3-3-5--3-3-5-|
B|-------------------------|
                                 
G|------------------------|    --------------------------------|
D|------------------------|    --------------------------------|
A|------3(x8)-5(x16)------|(x2)------3(x8)-5(x8)-8(x4)-7(x4)---|  
E|-5(x8)------------------|    -5(x8)--------------------------|
B|------------------------|    --------------------------------|

G|------------------------|
D|------------------------|
A|------3(x8)-5(x16)------|
E|-5(x8)------------------|
B|------------------------|

TOP cifras de Alesana

  1. Annabel
  2. As You Wish
  3. Sweetheart You Are Sadly Mistaken
  4. And They Call This Tragedy Intro
  5. All Night Dance Parties In The Undeground
  6. Circle Vii: Sins Of The Lion
  7. Goodbye Good Night For Good
  8. The Lover
  9. Ambrosia
  10. Apology Intro

Pela Web