Cifras Web
Alexisonfire

44 Calliber Love Letter

Alexisonfire

12 acessos

44. Caliber Love Letter


A5/D x 5 7 9 x x
G/B  x x 9 0 12 x 


 Intro
  Gtr I
  T     T          T    T    T     T          T    T

|--------------------------|--------------------------|
|-------8-(8)--(8)-----12--|-------8-(8)--(8)-----12--|
|-5-(5)------------5s9-----|-5-(5)------------5s9-----|
|--------------------------|--------------------------|
|--------------------------|--------------------------|
|--------------------------|--------------------------|



  T     T          T    T    T     T          T    T

|--------------------------|--------------------------|
|-------8-(8)--(8)-----12--|-------8-(8)--(8)-----12--|
|-5-(5)------------5s9-----|-5-(5)------------5s9-----|
|--------------------------|--------------------------|
|--------------------------|--------------------------|
|--------------------------|--------------------------|



  Gtr I
   T      T            T    T          T      T              T       T

|-----------------------------------|-------------------------------------|
|---------8-(8)----(8)-----12-------|---------8-(8)------(8)--------12----|
|--5-(5)---------------5s9----------|--5-(5)-----------------5s==9--------|
|-----------------------------------|-------------------------------------|
|-----------------------------------|-------------------------------------|
|-----------------------------------|-------------------------------------|

|
| Gtr II

|-17--------------------------------|-------------------------------------|
|------------------15---------15h17-|--------13-----(13)-------(13)-------|
|--------16-----17------------------|-16-------------------------------16-|
|-----------------------------------|-------------------------------------|
|-----------------------------------|-------------------------------------|
|-----------------------------------|-------------------------------------|



   T      T            T    T          T      T              T       T

|-----------------------------------|---------------------------------------|
|---------8-(8)----(8)-----12-------|---------8-(8)------(8)--------12------|
|--5-(5)---------------5s9----------|--5-(5)-----------------5s==9----------|
|-----------------------------------|---------------------------------------|
|-----------------------------------|---------------------------------------|
|-----------------------------------|---------------------------------------|

|

|-17--------------------------------|---------------------------------------|
|------------------15---------15h17-|--------13-----(13)-------(13)---------|
|--------16-----17------------------|-16-------------------------------16---|
|-----------------------------------|---------------------------------------|
|-----------------------------------|---------------------------------------|
|-----------------------------------|---------------------------------------|



   T      T            T    T          T      T              T       T

|-----------------------------------|-------------------------------------|
|---------8-(8)----(8)-----12-------|---------8-(8)------(8)--------12----|
|--5-(5)---------------5s9----------|--5-(5)-----------------5s==9--------|
|-----------------------------------|-------------------------------------|
|-----------------------------------|-------------------------------------|
|-----------------------------------|-------------------------------------|

|

|-17--------------------------------|-------------------------------------|
|------------------15---------15h17-|--------13-----(13)-------(13)-------|
|--------16-----17------------------|-16-------------------------------16-|
|-----------------------------------|-------------------------------------|
|-----------------------------------|-------------------------------------|
|-----------------------------------|-------------------------------------|



   T      T            T    T          T      T              T       T

|-----------------------------------|---------------------------------------|
|---------8-(8)----(8)-----12-------|---------8-(8)------(8)--------12------|
|--5-(5)---------------5s9----------|--5-(5)-----------------5s==9----------|
|-----------------------------------|---------------------------------------|
|-----------------------------------|---------------------------------------|
|-----------------------------------|---------------------------------------|

|

|-17--------------------------------|---------------------------------------|
|------------------15---------15h17-|--------13-----(13)-------(13)---------|
|--------16-----17------------------|-16-------------------------------16---|
|-----------------------------------|---------------------------------------|
|-----------------------------------|---------------------------------------|
|-----------------------------------|---------------------------------------|



   T      T              T     T     T      T              T     T

|---------------------------------|---------------------------------|
|---------8-(8)------(8)------12--|---------8-(8)------(8)------12--|
|--5-(5)-----------------5s=9-----|--5-(5)-----------------5s=9-----|
|---------------------------------|---------------------------------|
|---------------------------------|---------------------------------|
|---------------------------------|---------------------------------|

|

|---------------------------------|---------------------------------|
|--------13-----(13)-------15-----|--------13-----(13)-------15-----|
|-16-----------------16h17--------|-16-----------------16h17--------|
|---------------------------------|---------------------------------|
|---------------------------------|---------------------------------|
|---------------------------------|---------------------------------|



   T      T              T     T     T      T              T     T

|---------------------------------|----------------------------------|
|---------8-(8)------(8)------12--|---------8-(8)------(8)------12---|
|--5-(5)-----------------5s=9-----|--5-(5)-----------------5s=9------|
|---------------------------------|----------------------------------|
|---------------------------------|----------------------------------|
|---------------------------------|----------------------------------|

|

|---------------------------------|----------------------------------|
|--------13-----(13)-------15-----|--------13-----(13)-------15------|
|-16-----------------16h17--------|-16-----------------16h17---------|
|---------------------------------|----------------------------------|
|---------------------------------|----------------------------------|
|---------------------------------|----------------------------------|



   T      T            T    T          T      T              T       T

|-----------------------------------|---------------------------------------|
|---------8-(8)----(8)-----12-------|---------8-(8)------(8)--------12------|
|--5-(5)---------------5s9----------|--5-(5)-----------------5s==9----------|
|-----------------------------------|---------------------------------------|
|-----------------------------------|---------------------------------------|
|-----------------------------------|---------------------------------------|

|

|-17--------------------------------|---------------------------------------|
|------------------15---------15h17-|--------13-----(13)-------(13)----(13)-|
|--------16-----17------------------|-16------------------------------------|
|-----------------------------------|---------------------------------------|
|-----------------------------------|---------------------------------------|
|-----------------------------------|---------------------------------------|



   T     T          T    T      T      T          T    T

|---------------------------|----------------------------------|
|--------8-(8)--(8)-----12--|----------8-(8)--(8)-----12-------|
|--5-(5)------------5s9-----|---5--(5)------------5s9----------|
|---------------------------|----------------------------------|
|---------------------------|----------------------------------|
|---------------------------|----------------------------------|

|
|                                                        PM|

|---------------------------|----------------------------------|
|---------------------------|----------------------------------|
|-16------------------------|-(16)-----------------------------|
|---------------------------|----------------------------------|
|---------------------------|----------------------------------|
|---------------------------|----------------------------0-0---|



  Q=95
  N.C.(A5)
  T       T          T    T       T       T          T    T

|-------------------------------|-------------------------------|
|---------8-(8)--(8)-----12-----|---------8-(8)--(8)-----12-----|
|-5---(5)------------5s9--------|-5---(5)------------5s9--------|
|-------------------------------|-------------------------------|
|-------------------------------|-------------------------------|
|-------------------------------|-------------------------------|

|
| PM-------------------------------------------------------------

|-------------------------------|-------------------------------|
|-------------------------------|-------------------------------|
|-------------------------------|-------------------------------|
|-------------------------------|-------------------------------|
|-7-7--7--7---------------------|-7-7--7--7---------------------|
|-5-5--5--5-----------------0-0-|-5-5--5--5-----------------0-0-|



  T       T          T    T       T       T            T    T

|-------------------------------|------------------------------------||
|---------8-(8)--(8)-----12-----|---------8-(8)----(8)-----12--------||
|-5---(5)------------5s9--------|-5---(5)--------------5s9-----------||
|-------------------------------|------------------------------------||
|-------------------------------|------------------------------------||
|-------------------------------|------------------------------------||

|

|-----------------------------------------|                   PM|
|-------------------------------|------------------------------------||
|-------------------------------|------------------------------------||
|-------------------------------|---------------12-------------------||
|-------------------------------|----------------5-------------------||
|-7-7--7--7---------------------|-7-7--7--7--------------------------||


|-5-5--5--5-----------------0-0-|-5-5--5--5-------------------0-0----||



 .
  A5       N.C.
  Gtr I

|-------8---7----(7)--------------------|
|---------------------------------------|
|-5----------------------------7S===9---|
|---------------------------------------|
|---------------------------------------|
|---------------------------------------|

|
| Gtr III
| PM----|                           PM---

|----------17-17------------------------|
|-----------------------------15--------|
|----------------16--16-17-17----17-----|
|---------------------------------------|
|-7-7-7-7-------------------------------|
|-5-5-5-5---------------------------0-0-|



  A5       N.C.

|-------8---7----(7)-------------------------||
|--------------------------------------------||
|-5----------------------------7S=======9----||
|--------------------------------------------||
|--------------------------------------------||
|--------------------------------------------||

|
|-------|

|----------17-17-----------------------------||
|--------------------------15-15h17p15-------||
|----------------16--16-17-------------17-16-||
|--------------------------------------------||
|-7-7-7-7------------------------------------||
|-5-5-5-5------------------------------------||



  A5       N.C.

|-------8---7----(7)--------------------|
|---------------------------------------|
|-5----------------------------7S===9---|
|---------------------------------------|
|---------------------------------------|
|---------------------------------------|

|
| PM----|                           PM---

|----------17-17------------------------|
|-----------------------------15--------|
|----------------16--16-17-17----17-----|
|---------------------------------------|
|-7-7-7-7-------------------------------|
|-5-5-5-5---------------------------0-0-|



  A5      N.C.

|-------8---7----(7)-------------------------||
|--------------------------------------------||
|-5----------------------------7S=======9----||
|--------------------------------------------||
|--------------------------------------------||
|--------------------------------------------||

|
|-------|

|----------17-17-----------------------------||
|--------------------------15-15h17p15-------||
|----------------16--16-17-------------17-16-||
|--------------------------------------------||
|-7-7-7-7------------------------------------||
|-5-5-5-5------------------------------------||



 .
  A5       N.C.

|--------------------------------------------|
|---------------12----------------13p12-12---|
|------9p7-------------------9p=7------------|
|-10-------9h10----------10------------------|
|--------------------------------------------|
|--------------------------------------------|

|
|  PM----|                               PM---

|---------------17-17------------------------|
|---------------------------------15---------|
|---------------------16-16-17-17----17------|
|--------------------------------------------|
|--7-7-7-7-----------------------------------|
|--5-5-5-5-------------------------------0-0-|



  A5       N.C.

|-------------------------------------------------|
|---------------12----------------13p===12-12-----|
|------9p7-------------------9p=7-----------------|
|-10-------9h10----------10-----------------------|
|-------------------------------------------------|
|-------------------------------------------------|

|
|--------|

|---------------17-17-----------------------------|
|------------------------------15-15h17p15--------|
|---------------------16-16-17-------------17-16--|
|-------------------------------------------------|
|--7-7-7-7----------------------------------------|
|--5-5-5-5----------------------------------------|



  A5       N.C.

|--------------------------------------------|
|---------------12----------------13p12-12---|
|------9p7-------------------9p=7------------|
|-10-------9h10----------10------------------|
|--------------------------------------------|
|--------------------------------------------|

|
|  PM----|                               PM---

|---------------17-17------------------------|
|---------------------------------15---------|
|---------------------16-16-17-17----17------|
|--------------------------------------------|
|--7-7-7-7-----------------------------------|
|--5-5-5-5-------------------------------0-0-|



  A5       N.C.

|---------------------------------------------||
|---------------12----------------------------||
|------9p7------------------------------------||
|-10-------10p9-------------------------10----||
|---------------------------------------------||
|---------------------------------------------||

|
|--------|

|-------------5S15-15-15-15-15-15-15-15-15-15-||
|---------------------------------------------||
|---------------------------------------------||
|---------------------------------------------||
|--7-7-7-7------------------------------------||
|--5-5-5-5------------------------------------||



   .
    E5          N.C.
     T     T     T     T        T     T     T     T

||-----------------------------------------------------|
||o----------------------------------------------------|
||-----------------------------------------------------|
||--17p14-17p14-17p10-17p===10-17p10-17p10-17p10-17p10-|
||o----------------------------------------------------|
||-----------------------------------------------------|

|

||-----------------------------------------------------|
||o-------------------15h17p15----------------13----13-|
||---9--9--9--9----------------17-17-17-16-16----16----|
||---9--9--9--9----------------------------------------|
||o--7--7--7--7----------------------------------------|
||-----------------------------------------------------|



  E5          N.C.
   T     T     T     T        T     T     T     T
                                                       4x

|------------------------------------------------------||
|-----------------------------------------------------o||
|------------------------------------------------------||
|-17p14-17p14-17p14-17p===14-17p14-17p14-17p14-17p14---||
|-----------------------------------------------------o||
|------------------------------------------------------||

|
|                                                      4x

|------------------------------------------------------||
|-------------------15h17p15----------------13----13--o||
|--9--9--9--9----------------17-17-17-16-16----16------||
|--9--9--9--9------------------------------------------||
|--7--7--7--7-----------------------------------------o||
|------------------------------------------------------||



 .
  Q=H.=H                                  Q=100
  A5       N.C.                           A5
  Gtr I

|-------------------------------|-------------|------------|
|-------------------------------|-------------|------------|
|-------------------------------|-------------|------------|
|-7-7-7-7-----------------------|---------7---|-(7)--------|
|-7-7-7-7-----------------------|---------7---|-(7)--------|
|-5-5-5-5-----------------------|---------5---|-(5)--------|

|
| Gtr II

|-------------------------------|-------------|------------|
|-------------------------------|-------------|------------|
|----------9p7---------7-9-(9)--|-(9)---------|-(9)--------|
|-7-7-7-7------10-9-10----------|-------------|------------|
|-7-7-7-7-----------------------|-------------|------------|
|-5-5-5-5-----------------------|-------------|------------|




|-------------------------|-----------------------------------||
|-------------------------|-----------------------------------||
|-------------------------|-----------------------------------||
|-(7)---------------------|--(7)------------------------------||
|-(7)---------------------|--(7)------------------------------||
|-(5)---------------------|--(5)----/12\---------/2-----------||

|

|-------------------------|-------------------------20-20-19--||
|-------------13-12-(12)--|-(12)----(12)-(12)-17-17-----------||
|--9----------------------|-----------------------------------||
|-----0S12-14-------------|-----------------------------------||
|-------------------------|-----------------------------------||
|-------------------------|-----------------------------------||



 Screaming Verse
  Moderately Fast Rock Q=108
  A5                          F5

|---------------------------|-------------------------------|
|---------------------------|-------------------------------|
|---------------------------|-------------------------------|
|-7-7-7-7-7-7-7-7-7-7-7-7-7-|-3-3-3-----3-3-3-3-3-3-3-3-3-3-|
|-7-7-7-7-7-7-7-7-7-7-7-7-7-|-3-3-3-----3-3-3-3-3-3-3-3-3-3-|
|-5-5-5-5-5-5-5-5-5-5-5-5-5-|-1-1-1-----1-1-1-1-1-1-1-1-1-1-|

|
| Gtr II

|---------------------------|-------------------------------|
|---------------------------|-----------------------------0-|
|---------------------------|-----------------------5-------|
|-7-7-7-7-7-7-7-7-7-7-------|-x-x-x-----x-x-x-x---x-x---x---|
|-7-7-7-7-7-7-7-7-7-7-------|-3-3-3-(3)-3-3-3-3---3-3---3---|
|-5-5-5-5-5-5-5-5-5-5-------|-------------------------------|

|
| Gtr III

|---------------------------|-------------------------------|
|-------------------8-------|--------6------5---------------|
|---------------------------|-------------------------------|
|---------------------------|-------------------------------|
|---------------------------|-------------------------------|
|---------------------------|-------------------------------|



  D5

|-----------------------------------|-----------------------------------|
|-----------------------------------|-----------------------------------|
|--7-7-7-7-7-7-7-7--7-7-7-7-7-7-7-7-|--7-7-7-7-7-7-7-7--7-7-7-7-7-7-7-7-|
|--7-7-7-7-7-7-7-7--7-7-7-7-7-7-7-7-|--7-7-7-7-7-7-7-7--7-7-7-7-7-7-7-7-|
|--5-5-5-5-5-5-5-5--5-5-5-5-5-5-5-5-|--5-5-5-5-5-5-5-5--5-5-5-5-5-5-5-5-|
|-----------------------------------|-----------------------------------|

|

|-----------------------------------|-----------------------------------|
|--1S==3S==5-5-5-5--5-5-5-5-5-5-5-5-|--1S==3S==5-5-5-5--5-5-5-5-5-5-5-5-|
|--2S==4S==7-7-7-7--7-7-7-7-7-7-7-7-|--2S==4S==7-7-7-7--7-7-7-7-7-7-7-7-|
|-----------------------------------|-----------------------------------|
|-----------------------------------|-----------------------------------|
|-----------------------------------|-----------------------------------|

|

|-10-----7---------10---8---7---8---|-10-----7---------10---8---7---8---|
|-----------------------------------|-----------------------------------|
|-----------------------------------|-----------------------------------|
|-----------------------------------|-----------------------------------|
|-----------------------------------|-----------------------------------|
|-----------------------------------|-----------------------------------|



  A5                            F5

|-----------------------------|---------------------------|
|-----------------------------|---------------------------|
|-----------------------------|---------------------------|
|-7-7-7---7-7-7-7-7-7-7-7-7-7-|-3-3-3-3-3-3-3-3-3-3-3-3-3-|
|-7-7-7---7-7-7-7-7-7-7-7-7-7-|-3-3-3-3-3-3-3-3-3-3-3-3-3-|
|-5-5-5---5-5-5-5-5-5-5-5-5-5-|-1-1-1-1-1-1-1-1-1-1-1-1-1-|

|

|-----------------------------|---------------------------|
|-----------------------------|---------------------------|
|-----------------------------|---------------------------|
|-7-7-7-7-7-7-7-7-7-7-7---7-7-|-3-3-3-3-3-3-3-3-3-3-3-3-3-|
|-7-7-7-7-7-7-7-7-7-7-7---7-7-|-3-3-3-3-3-3-3-3-3-3-3-3-3-|
|-5-5-5-5-5-5-5-5-5-5-5---5-5-|-1-1-1-1-1-1-1-1-1-1-1-1-1-|



  N.C.

|---------------------------------------------------|
|---------------------------------------------------|
|-4-4-4-4-4-4-4-4-4-4-4-4-4-4-4-4-4-4--4--4-4-4-4-4-|
|---------------------------------------------------|
|---------------------------------------------------|
|---------------------------------------------------|

|

|-------------------------8-----7-----(7)-----------|
|-1S====3S====5-------------------------------------|
|---------------------------------------------------|
|---------------------------------------------------|
|---------------------------------------------------|
|---------------------------------------------------|




|-----------------------------------------------------------|
|-----------------------------------------------------------|
|-5-5-5-5-5-5--5-5-5--5-5-5-----4-4-4--4-4-4---4--4-4-4-4-4-|
|-----------------------------------------------------------|
|-----------------------------------------------------------|
|-----------------------------------------------------------|

|

|------------------------------20-----19-----(19)-----------|
|-1S====3S====15h====17p====15------------------------------|
|-----------------------------------------------------------|
|-----------------------------------------------------------|
|-----------------------------------------------------------|
|-----------------------------------------------------------|



  A5                          F5

|---------------------------|----------------------------|
|---------------------------|----------------------------|
|---------------------------|----------------------------|
|-7-7-7-7-7-7-7-7-7-7-7-7-7-|-3-3-3-3-3-3-3-3-3-3-3-3-3--|
|-7-7-7-7-7-7-7-7-7-7-7-7-7-|-3-3-3-3-3-3-3-3-3-3-3-3-3--|
|-5-5-5-5-5-5-5-5-5-5-5-5-5-|-1-1-1-1-1-1-1-1-1-1-1-1-1--|

|

|---------------------------|----------------------------|
|---------------------------|----------------------------|
|---------------------------|----------------------------|
|-7-7-7-7-7-7-7-7-7-7---7-7-|-3-3-3-3-3-3-3-3-3-3-3-3-3--|
|-7-7-7-7-7-7-7-7-7-7---7-7-|-3-3-3-3-3-3-3-3-3-3-3-3-3--|
|-5-5-5-5-5-5-5-5-5-5---5-5-|-1-1-1-1-1-1-1-1-1-1-1-1-1--|



  D5                      A5/D

|---------------------------------|---------------------------------|
|---------------------------------|---------------------------------|
|-7-7-7-7-7-7-7-7-7-7-7-7-9-9-9-9-|-9-9-9-9-9-9-9-9-9-9-9-9-9-9-9-9-|
|-7-7-7-7-7-7-7-7-7-7-7-7-7-7-7-7-|-7-7-7-7-7-7-7-7-7-7-7-7-7-7-7-7-|
|-5-5-5-5-5-5-5-5-5-5-5-5-5-5-5-5-|-5-5-5-5-5-5-5-5-5-5-5-5-5-5-5-5-|
|---------------------------------|---------------------------------|

|

|---------------------------------|---------------------------------|
|---------------------------------|---------------------------------|
|-7-7-7-7-7---7-7-7-7-7---7-7-7-7-|-7-7-7-7-7---7-7-7-7-7---7-7-7-7-|
|-7-7-7-7-7---7-7-7-7-7---7-7-7-7-|-7-7-7-7-7---7-7-7-7-7---7-7-7-7-|
|-5-5-5-5-5---5-5-5-5-5---5-5-5-5-|-5-5-5-5-5---5-5-5-5-5---5-5-5-5-|
|---------------------------------|---------------------------------|

|
| Gtr III

|-----------------8---7-----------|-----------------8---7-----------|
|---------------------------------|---------------------------------|
|---------------------------------|---------------------------------|
|---------------------------------|---------------------------------|
|---------------------------------|---------------------------------|
|---------------------------------|---------------------------------|



  A5                          F5

|---------------------------|----------------------------|
|---------------------------|----------------------------|
|---------------------------|----------------------------|
|-7-7-7-7-7-7-7-7-7-7-7-7-7-|-3-3-3-3-3-3-3-3-3-3-3-3-3--|
|-7-7-7-7-7-7-7-7-7-7-7-7-7-|-3-3-3-3-3-3-3-3-3-3-3-3-3--|
|-5-5-5-5-5-5-5-5-5-5-5-5-5-|-1-1-1-1-1-1-1-1-1-1-1-1-1--|

|

|---------------------------|----------------------------|
|---------------------------|----------------------------|
|---------------------------|----------------------------|
|-7-7-7-7-7-7-7-7-7-7---7-7-|-3-3-3-3-3-3-3-3-3-3-3-3-3--|
|-7-7-7-7-7-7-7-7-7-7---7-7-|-3-3-3-3-3-3-3-3-3-3-3-3-3--|
|-5-5-5-5-5-5-5-5-5-5---5-5-|-1-1-1-1-1-1-1-1-1-1-1-1-1--|



  D5                                A5/D

|---------------------------------|---------------------------------|
|---------------------------------|---------------------------------|
|-7-7-7-7-7-7-7-7-7-7-7-7-7-7-7-7-|-9-9-9-9-9-9-9-9-9-9-9-9-9-9-9-9-|
|-7-7-7-7-7-7-7-7-7-7-7-7-7-7-7-7-|-7-7-7-7-7-7-7-7-7-7-7-7-7-7-7-7-|
|-5-5-5-5-5-5-5-5-5-5-5-5-5-5-5-5-|-5-5-5-5-5-5-5-5-5-5-5-5-5-5-5-5-|
|---------------------------------|---------------------------------|

|

|---------------------------------|---------------------------------|
|---------------------------------|---------------------------------|
|-7-7-7-7-7---7-7-7-7-7---7-7-7-7-|-7-7-7-7-7---7-7-7-7-7---7-7-7-7-|
|-7-7-7-7-7---7-7-7-7-7---7-7-7-7-|-7-7-7-7-7---7-7-7-7-7---7-7-7-7-|
|-5-5-5-5-5---5-5-5-5-5---5-5-5-5-|-5-5-5-5-5---5-5-5-5-5---5-5-5-5-|
|---------------------------------|---------------------------------|

|
| Gtr III

|-----------------8---7-----------|-----------------8---7-----------|
|---------------------------------|---------------------------------|
|---------------------------------|---------------------------------|
|---------------------------------|---------------------------------|
|---------------------------------|---------------------------------|
|---------------------------------|---------------------------------|



  A5                          F5

|---------------------------|----------------------------|
|---------------------------|----------------------------|
|---------------------------|----------------------------|
|-7-7-7-7-7-7-7-7-7-7-7-7-7-|-3-3-3-3-3-3-3-3-3-3-3-3-3--|
|-7-7-7-7-7-7-7-7-7-7-7-7-7-|-3-3-3-3-3-3-3-3-3-3-3-3-3--|
|-5-5-5-5-5-5-5-5-5-5-5-5-5-|-1-1-1-1-1-1-1-1-1-1-1-1-1--|

|

|---------------------------|----------------------------|
|---------------------------|----------------------------|
|---------------------------|----------------------------|
|-7-7-7-7-7-7-7-7-7-7---7-7-|-3-3-3-3-3-3-3-3-3-3-3-3-3--|
|-7-7-7-7-7-7-7-7-7-7---7-7-|-3-3-3-3-3-3-3-3-3-3-3-3-3--|
|-5-5-5-5-5-5-5-5-5-5---5-5-|-1-1-1-1-1-1-1-1-1-1-1-1-1--|



  D5                                A5/D            D5

|---------------------------------|---------------------------------||
|---------------------------------|---------------------------------||
|-7-7-7-7-7-7-7-7-7-7-7-7-7-7-7-7-|-9-9-9-9-9-9-9-9-7-7-7-7-7-7-7-7-||
|-7-7-7-7-7-7-7-7-7-7-7-7-7-7-7-7-|-7-7-7-7-7-7-7-7-7-7-7-7-7-7-7-7-||
|-5-5-5-5-5-5-5-5-5-5-5-5-5-5-5-5-|-5-5-5-5-5-5-5-5-5-5-5-5-5-5-5-5-||
|---------------------------------|---------------------------------||

|

|---------------------------------|---------------------------------||
|---------------------------------|---------------------------------||
|-7-7-7-7-7---7-7-7-7-7---7-7-7-7-|-7-7-7-7-7---7-7-7-7-7---7-7-7-7-||
|-7-7-7-7-7---7-7-7-7-7---7-7-7-7-|-7-7-7-7-7---7-7-7-7-7---7-7-7-7-||
|-5-5-5-5-5---5-5-5-5-5---5-5-5-5-|-5-5-5-5-5---5-5-5-5-5---5-5-5-5-||
|---------------------------------|---------------------------------||



 Bridge
  E5
  Gtr I
  PM|  PM|                 PM|  PM|

|-----------------3p0h3--|-----------------3p0h3--|
|-----------0h1h3--------|-----------0h1h3--------|
|------------------------|------------------------|
|------------------------|------------------------|
|-2-2--2-2---------------|-2-2--2-2---------------|
|-0-0--0-0---------------|-0-0--0-0---------------|

|
| Gtr III

|---------------------0--|---------------------0--|
|-----------0h1h3p1p0----|-----------0h1h3p1p0----|
|------------------------|------------------------|
|------------------------|------------------------|
|------------------------|------------------------|
|------------------------|------------------------|



  PM|  PM|                 PM|  PM|

|-----------------3p0h3--|-----------------3p0h3----|
|-----------0h1h3--------|-----------0h1h3----------|
|------------------------|--------------------------|
|------------------------|--------------------------|
|-2-2--2-2---------------|-2-2--2-2-----------------|
|-0-0--0-0---------------|-0-0--0-0-----------------|

|

|---------------------0--|---------------------0----|
|-----------0h1h3p1p0----|-----------0h1h3p1p0------|
|------------------------|--------------------------|
|------------------------|--------------------------|
|------------------------|--------------------------|
|------------------------|--------------------------|



  E5        B          G    E5       BN.C.       G
  PM|  PM|                  PM|  PM|

|------------------3p0h3--|------------------3p0h3--|
|------------0h1h3--------|------------0h1h3--------|
|-------------------------|-------------------------|
|-------------------------|-------------------------|
|-2-2--2-2----------------|-2-2--2-2----------------|
|-0-0--0-0----------------|-0-0--0-0----------------|

|

|-------------------------|-------------------------|
|-----------12S========8--|-----------12S========8--|
|-------------------------|-------------------------|
|------------9S========5--|------------9S========5--|
|-------------------------|-------------------------|
|-------------------------|-------------------------|



  E5        B          G    E5        B                   G
  PM|  PM|                  PM|  PM|

|------------------3p0h3--|--------------------3p=0h=3----------|
|------------0h1h3--------|------------0h1h=3-------------------|
|-------------------------|-------------------------------------|
|-------------------------|-------------------------------------|
|-2-2--2-2----------------|-2-2--2-2----------------------------|
|-0-0--0-0----------------|-0-0--0-0----------------------------|

|

|-------------------------|-------------------------------------|
|-----------12S========8--|-----------12---12-12-12-12-12S8-8---|
|-------------------------|------------x----x--x--x--x--x-x-x---|
|------------9S========5--|------------9----9--9--9--9--9S5-5---|
|-------------------------|-------------------------------------|
|-------------------------|-------------------------------------|



 Chrous
  E5       B           D
    
PM      PM------------------|
|----------------------------------|
|----------------------------------|
|----------------------------------|
|-2---2----------------------------|
|-2-2-2-2---2--2--2--2--2--2--2--2-|

|-0-0-0-0---0--0--0--0--0--0--0--0-|
|
| PM  PM
|----------------------------------|
|----------12-12-12-12S15-15-15-15-|
|-----------x--x--x--x--x--x--x--x-|
|---2---2---9--9--9--9S12-12-12-12-|
|-2-2-2-2--------------------------|

|-0-0-0-0--------------------------|



  E5       B           D             E5       B           D
    
PM      PM------------------|      PM      PM------------------|
|----------------------------------|----------------------------------|
|----------------------------------|----------------------------------|
|----------------------------------|----------------------------------|
|-2---2----------------------------|-2---2----------------------------|
|-2-2-2-2---2--2--2--2--2--2--2--2-|-2-2-2-2---2--2--2--2--2--2--2--2-|

|-0-0-0-0---0--0--0--0--0--0--0--0-|-0-0-0-0---0--0--0--0--0--0--0--0-|
|
| PM  PM                             PM  PM
|----------------------------------|----------------------------------|
|----------12-12-12-12S15-15-15-15-|----------12-12-12-12S15-15-15-15-|
|-----------x--x--x--x--x--x--x--x-|-----------x--x--x--x--x--x--x--x-|
|---2---2---9--9--9--9S12-12-12-12-|---2---2---9--9--9--9S12-12-12-12-|
|-2-2-2-2--------------------------|-2-2-2-2--------------------------|
|-0-0-0-0--------------------------
|-0-0-0-0--------------------------|



  E5       B           D
    
PM      PM----------------------
|----------------------------------|
|----------------------------------|
|----------------------------------|
|-2---2----------------------------|
|-2-2-2-2---2--2--2--2--2--2--2--2-|

|-0-0-0-0---0--0--0--0--0--0--0--0-|
|
| PM  PM
|----------------------------------|
|----------12-12-12-12S15-15-15-15-|
|-----------x--x--x--x--x--x--x--x-|
|---2---2---9--9--9--9S12-12-12-12-|
|-2-2-2-2--------------------------|

|-0-0-0-0--------------------------|



  Em
 
----------------|
|----------------------------------|---0---------||
|----------------------------------|---0---------||
|--------------------------0-0-0-0-|---0---------||
|------------------2-2-2-2-2-2-2-2-|---2---------||
|--2-2-2-2-2-2-2-2-2-2-2-2-2-2-2-2-|---2---------||

|--0-0-0-0-0-0-0-0-0-0-0-0-0-0-0-0-|---0---------||
|

|----------------------------------|-------------||

|-15-------------------------------|-(15)--------||

|----------------------------------|-------------||

|-12-------------------------------|-(12)--------||

|----------------------------------|-------------||


|----------------------------------|-------------||



 Screaming Verse
  A5                          F5

|---------------------------|-----------------------------|
|---------------------------|-----------------------------|
|---------------------------|-----------------------------|
|-7-7-7-7-7-7-7-7-7-7-7-7-7-|-3-3-3---3-3-3-3-3-3-3-3-3-3-|
|-7-7-7-7-7-7-7-7-7-7-7-7-7-|-3-3-3---3-3-3-3-3-3-3-3-3-3-|
|-5-5-5-5-5-5-5-5-5-5-5-5-5-|-1-1-1---1-1-1-1-1-1-1-1-1-1-|

|

|---------------------------|-----------------------------|
|---------------------------|-----------------------------|
|---------------------------|-----------------------------|
|-7-7-7-7-7-7-7-7---7---7-7-|-3-3-3-3-3-3-3-3-3---3---3-3-|
|-7-7-7-7-7-7-7-7---7---7-7-|-3-3-3-3-3-3-3-3-3---3---3-3-|
|-5-5-5-5-5-5-5-5---5---5-5-|-1-1-1-1-1-1-1-1-1---1---1-1-|



  D       A5/D              E                   F          E

|-------------------------------|-----------------------------------|
|-------------------------------|-----------------------------------|
|-7-7-7---9-9---9-9-9-9-5h7-9---|-9-9-9---9-9-9S10---10-10S9---9-9--|
|-7-7-7---7-7---7-7-7-7-----x---|-x-x-x---x-x-x--x----x--x-x---x-x--|
|-5-

TOP cifras de Alexisonfire

  1. Control
  2. Side Walk When She Walks
  3. Boiled Frogs
  4. Sharks And Danger
  5. Adelleda
  6. Drunks Lovers Sinners And Saints
  7. Sidewalk When She Walks
  8. Little Girls Pointing And Laughing
  9. Get Fighted
  10. No Transistory

Pela Web