Cifras Web
Alexisonfire

It Was Fear Of Myself That Made Me Odd

Alexisonfire

12 acessos

Tabbed by: Riley
Email:*

Tuning: Dadgbe

I could not find the tab for this song anywhere on the net so I figured I’d give it a
This is just the riff that kicks in with distortion "As this rainforest falls beneath my
Sorry I could care less about the rest of it. I’m sure there’s two guitars playing this 
well but I did my best to combine them so one guitar can play it.


e|---------------------------------------------------------------------------|
B|---------------------------------------------------------------------------|
G|----10------------9---10---------------------------------------------------|
D|---------10---7------------10---7------------------------------------------|
A|0-0------------------------------------------------------------------------|
E|0-0----0----0---0---0----0----0--------------------------------------------|

  . .    .    .   .   .    .    .

e|---------------------------------------------------------------------------|
B|---------------------------------------------------------------------------|
G|----10----------9h10p9p7h9/14\---------------------------------------------|
D|---------10---7------------------------------------------------------------|
A|8--------------------------------------------------------------------------|
E|8-8----8----8--------------------------------------------------------------|

    .    .    .

e|---------------------------------------------------------------------------|
B|----------------------------------------------------10---8---10------------|
G|----10------------9---10--------9h10p9-7-9h10p9p7h9----x---x---------------|
D|---------10---7------------10\---------------------------------------------|
A|5--------------------------------------------------------------------------|
E|5-5----5----5---5---5----5-------------------------------------------------|

    .    .    .   .   .    .             .

The last ending for this is simple just a power chord on the 5th fret D string that
to the 3rd fret.

| .  palm mute
| /  slide up
| \  slide down
| h  hammer-on
| p  pull-off
| ~  vibrato
| +  harmonic
| x  stuccato
===============================================================================

TOP cifras de Alexisonfire

  1. Control
  2. Side Walk When She Walks
  3. Boiled Frogs
  4. Sharks And Danger
  5. Adelleda
  6. Drunks Lovers Sinners And Saints
  7. Sidewalk When She Walks
  8. Little Girls Pointing And Laughing
  9. Get Fighted
  10. No Transistory

Pela Web