Cifras Web
Alexisonfire

Little Girls Pointing And Laughing

Alexisonfire

14 acessos

Tabbed by: .:special k:.
Email: *
Site: *

This is an uncompleted rough draft! This is also the tab for the track off the cd, so for
the pricks that are already cussing at me for getting some notes wrong, well stop wasting
your breath, you're probably listening to a downloaded version, do a favour for a great

Tuning: Dropped D

(figure out the rhythm yourself, t'is easy!)

e|--------------------------------------------------------------------------|
B|--------------------------------------------------------------------------|
G|-8-8-8-8-6-6/11-11-11-11/10-10-10-10/15-15-15-15-15\13/15-15-15-15-15-15--|
D|--------------------------------------------------------------------------|
A|-6-6-6-6-6-6/-9-9--9--9/-8--8--8-8/--13-13-13-13-13\11/13-13-13-13-13-13--|
D|--------------------------------------------------------------------------|



e|--------------------------------------------------------------------------|
B|-----------------14-14-14-------------------------------------------------|
G|---11-11-11---------------------------------------------------------------|
D|-----------------11-11-11-------------------------------------------------|
A|---9--9--9----------------------------------------------------------------|
D|--------------------------------------------------------------------------|



e|--------------------------------------------------------------------------|
B|---11-11-11-11-11---------------------------------------------------------|
G|---9--9--9--9--9------------10/11\6---------------10/11\6-----------------|
D|---9--9--9--9--9---1111-------------------1111----------------------------|
A|---9--9--9--9--9---1111------8/9\4--------1111-----8/9\4------------------|
D|---9--9--9--9--9---1111-------------------1111----------------------------|


e|--------------------------------|
B|--------------------------------|
G|--------------------------------|
D|----99-9-99-----10h13-----------| x4 
A|----99-9-99--------------10h13--|
D|----99-9-99---------------------|
   pm---------

e|--------------------------------|
B|--------------------------------|
G|--------------------------------|
D|----11-1-11---------------------| x4 (not sure of the riffy part there)
A|----11-1-11---------------------|
D|----11-1-11---------------------|

   pm---------
e|--------------------------------|
B|--------------------------------|
G|--------------11-13-------------| 
D|----99-9-99-----------11--------| x4
A|----99-9-99---------------------|
D|----99-9-99---------------------|
   pm---------

e|------------14-13---------------|
B|------------------14------------|
G|--------------------------------|
D|----11-1-11---------------------| x4 (fourth time, pull off)
A|----11-1-11---------------------|
D|----11-1-11---------------------|

   pm---------    

That's all I have so far, I attempted to tab this song fully knowing I wasn't gonna do
the whole song. Those palm mutes were way too much fun to pass up. So I tried! I'll try
to figure out the whole song soon...

| /  slide up
| \  slide down
| h  hammer-on
| p  pull-off
| ~  vibrato
| +  harmonic
| x  Mute note
===============================================================================

TOP cifras de Alexisonfire

  1. Control
  2. Side Walk When She Walks
  3. Boiled Frogs
  4. Sharks And Danger
  5. Adelleda
  6. Drunks Lovers Sinners And Saints
  7. Sidewalk When She Walks
  8. Little Girls Pointing And Laughing
  9. Get Fighted
  10. No Transistory

Pela Web