Cifras Web
Alexisonfire

Rough Hands Intro

Alexisonfire

10 acessos

Tabbed by: Braden L.
Email: *

Tuning: Down half-step.

Just the intro here folks, sounds pretty sweet too. Tabbed at 110bpms!

Guitar 1
  E E E E E E E E   E E E E E E E E   E E E E E E E E   E E E E E E E E

|-----------------|-----------------|-----------------|-----------------|
|-----------------|-----------------|-----------------|-----------------|
|-----------------|-----------------|-----------------|-----------------|
|-----------------|-----------------|-----------------|-----------------|
|-----------------|-----------------|-----------------|-----------------|
|-0-0-0-0-0-0-0-0-|-3-3-3-3-3-3-3-3/|-8-8-8-8-8-8-8-8-|-7-7-7-7-7-7-7-7-|


Guitar 2
  H   E   Q  E   H   E   Q  E   H   E   Q  E   H   E   Q  E

|--------------|--------------|--------------|--------------|
|--------------|--------------|--------------|-0--(0)-------|
|-0--(0)-------|-2--(2)-------|-0--(0)-------|---------2----|
|---------4--0-|---------2--0-|---------4--0-|------------0-|
|--------------|--------------|--------------|--------------|
|--------------|--------------|--------------|--------------|



| H  half-note
| E  eighth-note
| Q  quarter-note
| /  slide up
| \  slide down
| h  hammer-on
| p  pull-off
| ~  vibrato
| +  harmonic
| x  Mute note
===============================================================================

TOP cifras de Alexisonfire

  1. Control
  2. Side Walk When She Walks
  3. Boiled Frogs
  4. Sharks And Danger
  5. Adelleda
  6. Drunks Lovers Sinners And Saints
  7. Sidewalk When She Walks
  8. Little Girls Pointing And Laughing
  9. Get Fighted
  10. No Transistory

Pela Web