Cifras Web
Alexisonfire

Side Walk When She Walks

Alexisonfire

17 acessos

Album: Watch out!

Tuning: 1/2 step down (Eb,Ab,Db,Gb)


Intro - (0:18)
Gb|------------------------------|
Db|------------------------------|
Ab|------------------------------|
Eb|--7--7---3333---7777---3333---|

Gb|--------------------------|
Db|--------------------------| x2 [end on Eb 7]
Ab|--------------------------|
Eb|--7777-7777---3333-3333---|


Verse - (0:36)
Gb|------------------------|
Db|------------------------|
Ab|---------10~\\5~---------|
Eb|--7~---------------7~---|

   (1:01)      (1:09)
Gb|-------------11~-----|
Db|---------------------|
Ab|---------------------|
Eb|--7~-----------------|


Chorus - (1:12)
Gb|------------------------------|
Db|------------------------------|
Ab|------------------------------|
Eb|--7--7---3333---7777---3333---|

   
Gb|-------------------------------------------|
Db|-------------------------------------------|
Ab|-------------------------------------------|
Eb|--7777-7777---3333-3333---7777-7777---3~---|





Soft bridge - (1:38)
Gb|-----------------------------7-11-12p11---|
Db|--12--9-7------------7---7-9--------------| x4
Ab|----------9--5~---45----------------------|
Eb|------------------------------------------|


Heavy bridge - (2:07)
Gb|----------------------| 
Db|----------------------| -|
Ab|----------------------|  |
Eb|--7--10\\9---3---------|  |
			    |- x2
Gb|----------------------|  |
Db|----------------------|  |
Ab|----------------------| -|
Eb|--7--10\\9---3----30---|


   (2:19)
Gb|----------------------| 
Db|----------------------| -|
Ab|----------------------|  |
Eb|--7--10\\9---3-33-33---|  |
			    |- x4
Gb|----------------------|  |
Db|----------------------|  |
Ab|----------------------| -|
Eb|--7--10\\9---3-33-30---|


[short guitar break]


Chorus - (2:43) 
Gb|------------------------------|
Db|------------------------------|
Ab|------------------------------|
Eb|--7--7---3333---7777---3333---|

   
Gb|--------------------------|
Db|--------------------------| x4
Ab|--------------------------|
Eb|--7777-7777---3333-3333---|


Outro
Gb|-------------|
Db|-------------|
Ab|-------------|
Eb|--77-77-7~---|

There it is. Hope it Helps. Now go out and buy the Cd.

TOP cifras de Alexisonfire

  1. Control
  2. Side Walk When She Walks
  3. Boiled Frogs
  4. Sharks And Danger
  5. Adelleda
  6. Drunks Lovers Sinners And Saints
  7. Sidewalk When She Walks
  8. Little Girls Pointing And Laughing
  9. Get Fighted
  10. No Transistory

Pela Web