Cifras Web
Alexisonfire

This Could Be Anywhere

Alexisonfire

9 acessos

This is My First Tab so dont get upset if its wrong. But im 99% sure its right=] 

Intro

|--------------------|   |-----------------|
|--------------------|   |-----------------|
|--------------------|x2 |-----------------|
|---11---11----------|   |---11--11--11----|
|---11---11----------|   |---11--11--11----|
|----9----9----------|   |----9---9---9----|


Verse

|-----------------|-------------------|-----------------|--------------|
|-----9-----------|----9--------------|--9--------------|--------------|
|-------6-8-9-8-6-|-------6-8-9-11-9-8|-----6-8-9-8-6---|--11-13-14-13-|
|-----------------|-------------------|-----------------|--------------|
|-----------------|-------------------|-----------------|--------------|
|-----------------|-------------------|-----------------|--------------|


|--------------------|   
|--------------------|   
|--------------------|x2 
|---11---11----------|   
|---11---11----------|   
|----9----9----------|


|------10-10-9-9/7-|--4-4-5-5-7--|-----10-10-9-9/7-|-4-4-4-5-12-------|
|----6-------------|-------------|---6-------------|------------------|
|------------------|-------------|-----------------|------------------|
|------------------|-------------|-----------------|------------------|
|------------------|-------------|-----------------|------------------|
|------------------|-------------|-----------------|------------------|


Pre-Chorus
|--------------------|   
|--------------------|   
|--------------------|x2 
|---11---11----------|   
|---11---11----------|   
|----9----9----------|


|-----------------|-------------------|-----------------|--------------|
|-----9-----------|----9--------------|--9--------------|--------------|
|-------6-8-9-8-6-|-------6-8-9-11-9-8|-----6-8-9-8-6---|--11-13-14-13-|
|-----------------|-------------------|-----------------|--------------|
|-----------------|-------------------|-----------------|--------------|
|-----------------|-------------------|-----------------|--------------|


Chorus x2

|-------------------------------------------------|
|-------------------------------------------------|
|-------------------------------------------------|
|----11---11-11-11---11-11-11---11-11---11-11-----|
|----11---11-11-11---11-11-11---11-11---11-11-----|
|-----9----9--9--9----9--9--9----9--9----9--9-----|



|-------------------------------------------------|
|-------------------------------------------------|
|-------------------------------------------------|
|----7---7-7-7---7-7-7---7-7---7-7----------------|
|----7---7-7-7---7-7-7---7-7---5-5----------------|
|----5---5-5-5---5-5-5---5-5---5-5----------------|



|-------------------------------------------------|
|-------------------------------------------------|
|-------------------------------------------------|
|----4---4-4-4---4-4-4---4-4---4-4----------------|
|----4---4-4-4---4-4-4---4-4---4-4----------------|
|----2---2-2-2---2-2-2---2-2---2-2----------------|



|-------------------------------------------------|
|-------------------------------------------------|
|-------------------------------------------------|
|----7-7---7---7-7-7----9-9---9---9-9-9-----------|
|----7-7---7---7-7-7----9-9---9---9-9-9-----------|
|----5-5---5---5-5-5----7-7---7---7-7-7-----------|


(intro)







TOP cifras de Alexisonfire

  1. Control
  2. Side Walk When She Walks
  3. Boiled Frogs
  4. Sharks And Danger
  5. Adelleda
  6. Drunks Lovers Sinners And Saints
  7. Sidewalk When She Walks
  8. Little Girls Pointing And Laughing
  9. Get Fighted
  10. No Transistory

Pela Web