Cifras Web
Alexisonfire

Tonight Im Going To Wash The Hippy

Alexisonfire

11 acessos

Tabbed By: Chad Porteous
CD: Spit EP

~ = harmonic
h = hammer on
p = pull off
s = slide
/ = pick slide up
\ = pick slide down
* = let it ring

standard tuning

this is like my first tab so if you have any suggestions e-mail me *

okay here's how i play this song


|------------------0*------------------|
|------------------0*------------------|
|------------------0*------------------|
|------------------0*------------------|  x1
|------------------0*------------------|
|------------------0*------------------|



|-------------------------------------------------------------|
|-------------------------------------------------------------|
|-------------------------------------------------------------|
|---111111111111----------------------------------------------|  x8
|---111111111111----------------------------------------------|
|---9-9-9-9-9-9-777777-444444-555555--------------------------|

  pm................................

|----------------------------------------|
|----------------------------------------|
|----------------------------------------|
|---11-1111--9--99--6--66--7--77---------|  x4
|---11-1111--9--99--6--66--7--77---------|
|---9--9-9---7--77--4--44--5--55---------|



|---------------------------------------------------|
|---------------------------------------------------|
|---9-8-----------------------9-8-------------------|
|-------9-9h11----6-7-9-7-6-4-----9-11----6h7h9-----|  x2
|---------------------------------------------------|
|---------------------------------------------------|



|--------------------------------7~---------------------------------7~--|
|-------------------------------------------------------------------7~--|
|-------------------------------------------------------------------7~--|
|---111111111111-9------7--------------111111111111-9------7------------|
|---111111111111-9------7--------------111111111111-9------7------------|
|---9-9-9-9-9-9--7------5--------------9-9-9-9-9-9--7------5------------|

  pm............                     pm............

|-------------------------------|
|-------------------------------|
|-------------------------------|
|---11--11-9---99-6--66-7---77--|  x6
|---11--11-9---99-6--66-7---77--|
|---9---9--7---77-4--44-5---55--|



|---------------------------------------------------|
|---------------------------------------------------|
|---9-8-----------------------9-8-------------------|
|-------9-9h11----6-7-9-7-6-4-----9-11----6h7h9-----|  x2
|---------------------------------------------------|
|---------------------------------------------------|



|-------------------------------|
|-------------------------------|
|-------------------------------|
|---111111111111-----999---77---|  x4
|---111111111111-----999---77---|
|---9-9-9-9-9-9------777---55---|

  pm.........................

|-------------------------------------------------------|
|-------------------------------------------------------|
|---9-9-8-8---------------------------------------------|
|-----------9-9-11-11-9-9-7-7-6-6-7-7-9-9-7-7-6-6-4-4---|  x4
|-------------------------------------------------------|
|-------------------------------------------------------|



|---------------0*--------------------------------------|
|---------------0*--------------------------------------|
|---9-9-8-8-----0*--------------------------------------|
|-----------9-9-0*------------6-6-7-7-9-9-7-7-6-6-4-4---|  x4
|---------------0*--------------------------------------|
|---------------0*--------------------------------------|



|--------------------------------|
|--------------------------------|
|--------------------------------|
|---11-1111-1111----9-99--7-77---|  x4
|---11-1111-1111----9-99--7-77---|
|---9--9-9--9-9-----7-77--5-55---|



|--------------------------------------------|
|---12121212--12121212--10101010--8-8-8-8----|
|---9-9-9-9---9-9-9-9---7-7-7-7---5-5-5-5----|
|--------------------------------------------|  x2
|--------------------------------------------|
|--------------------------------------------|



|--------------------------------|
|--------------------------------|
|--------------------------------|
|---11-1111-1111----9-99--7-77---|  x7
|---11-1111-1111----9-99--7-77---|
|---9--9-9--9-9-----7-77--5-55---|



|-----------------------------|
|-----------------------------|
|-----------------------------|
|---11-1111-1111----9-99--7---|  x1
|---11-1111-1111----9-99--7---|
|---9--9-9--9-9-----7-77--5---|



|------------------------------------------|
|------------------------------------------|
|------------------------------------------|
|---11-111111---11-111111---9-999----7-777-|  x2
|---11-111111---11-111111---9-999----7-777-|
|---9--9-9-9----9--9-9-9----7-777----5-555-|



|------------------------------------------|
|------------------------------------------|
|------------------------------------------|
|---11-111111---11-111111------------7-777-|  x1
|---11-111111---11-111111------------7-777-|
|---9--9-9-9----9--9-9-9-------------5-555-|



|------------------------------------------|
|------------------------------------------|
|------------------------------------------|
|---11-111111---11-111111---9-999----7-777-|  x1
|---11-111111---11-111111---9-999----7-777-|
|---9--9-9-9----9--9-9-9----7-777----5-555-|




|-------------------------------------------------------------|
|-------------------------------------------------------------|
|-------------------------------------------------------------|
|---11------------11------------11----------111111111111-11*--|  x1
|---11------------11------------11----------111111111111-11*--|
|---9-------------9-------------9-----------9-9-9-9-9-9--9-*--|

                                                              pm............

|---------------------------------------------|
|---------------------------------------------|
|---------------------------------------------|
|---11-111111--11-111111--11-111111---9--9-9--|
|---11-111111--11-111111--11-111111---9--9-9--|
|---9--9-9-9---9--9-9-9---9--9-9-9----7--7-7--|



--------------------------------------------------|
--------------------------------------------------|
--------------------------------------------------|
---11-111111--11-111111--11-111111---7--7-7--11*--|  x12
---11-111111--11-111111--11-111111---7--7-7--11*--|
---9--9-9-9---9--9-9-9---9--9-9-9----5--5-5--9-*--|

                                                                                        
it ring the 12th time only

|---------------------------------------------|
|---------------------------------------------|
|---------------------------------------------|
|---11-111111--11-111111--11-111111---9--9-9--|  x3
|---11-111111--11-111111--11-111111---9--9-9--|
|---9--9-9-9---9--9-9-9---9--9-9-9----7--7-7--|



|----------------------------------------------------|
|----------------------------------------------------|
|----------------------------------------------------|
|---11-111111--11-111111--11-111111---9--9-9---11*---|  x1
|---11-111111--11-111111--11-111111---9--9-9---11*---|
|---9--9-9-9---9--9-9-9---9--9-9-9----7--7-7---9-*---|



___The End___

TOP cifras de Alexisonfire

  1. Control
  2. Side Walk When She Walks
  3. Boiled Frogs
  4. Sharks And Danger
  5. Adelleda
  6. Drunks Lovers Sinners And Saints
  7. Sidewalk When She Walks
  8. Little Girls Pointing And Laughing
  9. Get Fighted
  10. No Transistory

Pela Web