Cifras Web
Alfredo Zitarrosa

Gato Del Perro

Alfredo Zitarrosa

9 acessos

Intro.. 
                                                             
E||-------------0----|-------------0----|-------------0----| 
B||------------------|------------------|------------------| 
G||----------2-------|----------2-------|----------1-------| 
D||--2--4------------|--2--4------------|--2--4------------| 
A||------------------|------------------|------------------| 
E||------------------|------------------|------------------| 
                                                          
-------------0----|-------------0----|-------------0----| 
------------------|------------------|------------------| 
----------1-------|----------2-------|----------2-------| 
--2--4------------|--2--4------------|--2--4------------| 
------------------|------------------|------------------| 
------------------|------------------|------------------| 
                                                       
----0----0----0--|--0---------------| 
-----------------|-----3----2--0----| 
----1----1----1--|--1---------------| 
-----------------|-----4----2--0----| 
-----------------|------------------| 
-----------------|------------------| 

 A                E 
Desde que ya era mozo 
            A            BIS 
No tengo perro 
  D               A 
Y ahora que soy grande 
  E7      E              BIS 
Tampoco tengo 

Tuve un perro chiquito 
Pelo de alambre 
Con lo que yo ganaba 
Se murio de hambre 

Intro... 

Van tirando de un carro 
Puro pellejo            BIS 
Un perro, un gurisito 
Y un criollo viejo      BIS 

Los tres van caminando 
Llenos de tierra   TAB (2) 
Y los tres van pensando 
¡que vida perra! 

 TAB (2) 

E||-----------------|------------------|-----------------| 
B||-----------------|------------------|-----------------| 
G||-----------------|------------------|-----------------| 
D||------2--2----4--|----------2----4--|------2--2----4--| 
A||-----------------|--0----4----------|-----------------| 
E||-----------------|------------------|-----------------| 
                                                         
------------------|-----------------|------------------| 
------------------|-----------------|------------------| 
------------------|-----------------|------------------| 
----------0----4--|------2--2----4--|----------2----4--| 
-------2----------|-----------------|--0----4----------| 
--4---------------|-----------------|------------------| 
                                                     
-----------------|------------------|-------------|| 
-----------------|------------------|-------------|| 
-----------------|------------------|-------------|| 
------2--2----2--|--2--2----0----0--|-------------|| 
-----------------|------------------|--4----------|| 
-----------------|------------------|-------------||

TOP cifras de Alfredo Zitarrosa

  1. El Camba
  2. Doña Soledad
  3. A José Artigas
  4. Es Tan Poco
  5. Adagio De Mi País
  6. Chacarera Del 55
  7. El Loco Antonio
  8. El Retobao
  9. Gato Del Perro
  10. Stefanie

Pela Web