Cifras Web
Alice Cooper

Brutal Planet

Alice Cooper

11 acessos

    GUITAR ONE
             P.M...................          P.M....................

C-||--------------------------------|---------------------------------||
G-||.-------------------------------|--------------------------------.||
E-||--------------------------------|---------------------------------||
B-||---8\---------------------------|--8\-----------------------------||
F-||.--8\---------------------------|--8\----------------------------.||
C-||---6\----0--0----0-0-0----0--0--|--6\----0--0----0-0-0----0-0-0---||


    GUITAR ONE
           P.M...................          P.M....................

C-|---------------------------------|---------------------------------|
G-|---------------------------------|---------------------------------|
E-|---------------------------------|---------------------------------|
B-|----8\---------------------------|--8\-----------------------------|
F-|----8\---------------------------|--8\-----------------------------|
C-|----6\----0--0----0-0-0----0--0--|--6\----0--0----0-0-0----0-0-0---|

  |
  | GUITAT TWO

C-|---------------------------------|------------------------18~~~~---|
G-|---------------------------------|---------------------------------|
E-|-----16h17--16h17--16h17--16p15--|--16h17--16h17--16h17------------|
B-|---------------------------------|---------------------------------|
F-|---------------------------------|---------------------------------|
C-|---------------------------------|---------------------------------|



            P.M...................          P.M.......................
C-|---------------------------------|----------------------------------|
E-|---------------------------------|----------------------------------|
B-|----8\---------------------------|--8\------------------------------|
F-|----8\---------------------------|--8\------------------------------|
C-|----6\----0--0----0-0-0----0--0--|--6\----0--0----0-0-0----0-0-0-0--|
  |
  | 

C-|---------------------------------|------------------------18~~~~---|
G-|---------------------------------|---------------------------------|
E-|-----16h17--16h17--16h17--16p15--|--16h17--16h17--16h17------------|
B-|---------------------------------|---------------------------------|
F-|---------------------------------|---------------------------------|
C-|---------------------------------|---------------------------------|

 

 VERSE
     P.M....................................................

C-|--------------------------|---------------------------------|
G-|--------------------------|---------------------------------|
E-|--------------------------|---------------------------------|
B-|--------------------------|---------------------------------|
F-|--------------------------|---------------------------------|
C-|--0--0--0--0--0--0--0--0--|--0--0--0--0-----0-0-0---0-0-0---|

  |
  |  

C-|--------------------------|---------------------------------|
G-|--------------------------|---------------------------------|
E-|--------------------------|---------------------------------|
B-|--------------------------|-------------------------9---8---|
F-|--------------------------|-----------------7---------------|
C-|--------------------------|---------------------------------|


     P.M....................................................

C-|--------------------------|---------------------------------|
G-|--------------------------|---------------------------------|
E-|--------------------------|---------------------------------|
B-|--------------------------|---------------------------------|
F-|--------------------------|---------------------------------|
C-|--0--0--0--0--0--0--0--0--|--0--0--0--0-----0-0-0---0-0-0---|

  | 
  |

C-|--------------------------|---------------------------------|
G-|--------------------------|---------------------------------|
E-|--------------------------|---------------------------------|
B-|--------------------------|------------------------10---9---|
F-|--------------------------|-----------------7---------------|
C-|--------------------------|---------------------------------|



     P.M....................................................

C-|--------------------------|---------------------------------|
G-|--------------------------|---------------------------------|
E-|--------------------------|---------------------------------|
B-|--------------------------|---------------------------------|
F-|--------------------------|---------------------------------|
C-|--0--0--0--0--0--0--0--0--|--0--0--0--0-----0-0-0---0-0-0---|

  |
  |

C-|--------------------------|---------------------------------|
G-|--------------------------|---------------------------------|
E-|--------------------------|---------------------------------|
B-|--------------------------|-------------------------9---8---|
F-|--------------------------|-----------------7---------------|
C-|--------------------------|---------------------------------|


     P.M.........................................      VERSE END

C-|---------------------------------|--------------------------|
G-|---------------------------------|--------------------------|
E-|---------------------------------|--------------------------|
B-|---------------------------------|--------------2-----------|
F-|---------------------------------|--------------2-----------|
C-|--0--0--0--0-----0-0-0---0-0-0---|--0--0--0--0--0-----------|



    GUITAR ONE
               P.M..................           P.M...................

C-||----------------------------------|----------------------------------||
G-||.---------------------------------|---------------------------------.||
E-||----------------------------------|----------------------------------||
B-||-----8\---------------------------|--8\------------------------------||
F-||.----8\---------------------------|--8\-----------------------------.||
C-||-----6\----0--0----0-0-0----0--0--|--6\----0--0----0-0-0----0-0-0----||

  |
  | GUITAR TWO

C-||----------------------------------|-----------------------18~~~~----||
G-||.---------------------------------|--------------------------------.||
E-||-----16h17--16h17--16h17--16p15---|--16h17--16h17--16h17------------||
B-||----------------------------------|---------------------------------||
F-||.---------------------------------|--------------------------------.||
C-||----------------------------------|---------------------------------||


  2ND VERSE (SAME AS VERSE ONE)

  THEN PLAY
                                               P.M.....................

C-|-----------------|-----------------|-----------------------------------|
G-|-----------------|-----------------|-----------------------------------|
E-|-----------------|-----------------|-----------------------------------|
B-|--5--------------|--7--------------|--8\-------------------------------|
F-|--5--------------|--7--------------|--8\-------------------------------|
C-|--3--------------|--5--------------|--6\----0--0----0-0-0----0-0-0-0---|


           P.M...................

C-|---------------------------------|-----------------|-----------------|
G-|---------------------------------|-----------------|-----------------|
E-|---------------------------------|-----------------|-----------------|
B-|--8\-----------------------------|--5--------------|--7--------------|
F-|--8\-----------------------------|--5--------------|--7--------------|
C-|--6\----0--0----0-0-0----0-0-0---|--3--------------|--5--------------|


  BRIDGE

C-||---------------------------|--------------------------|
G-||.--------------------------|--------------------------|
E-||---------------------------|--5--5--5--5--5--5--5--5--|
B-||---2--2--2--2--2--2--2--2--|--5--5--5--5--5--5--5--5--|
F-||.--2--2--2--2--2--2--2--2--|--3--3--3--3--3--3--3--3--|
C-||---0--0--0--0--0--0--0--0--|--------------------------|




C-|--------------------------|---------------------------||
G-|--------------------------|--------------------------.||
E-|--2--2--2--2--2--2--2--2--|---------------------------||
B-|--2--2--2--2--2--2--2--2--|--3--3--3--3--3--3--3--3---||
F-|--0--0--0--0--0--0--0--0--|--3--3--3--3--3--3--3--3--.||
C-|--------------------------|--1--1--1--1--1--1--1--1---||


  CHORUS

C-||---------------------------|----------------------------|
G-||.--------------------------|----------------------------|
E-||------------------------2--|-----------------2----------|
B-||---5--2--5--2--5--2--5--2--|--5--2--5--2--5--2--5-------|
F-||.--5--2--5--2--5--2--5--0--|--5--2--5--2--5--0--5-------|
C-||---3--0--3--0--3--0--3-----|--3--0--3--0--3-----3-------|




C-|--------------------------|--------------------------||
G-|--------------------------|-------------------------.||
E-|-----------------------2--|-----------2--------------||
B-|--5--2--5--2--5--2--5--2--|--5--2--5--2--5-----------||
F-|--5--2--5--2--5--2--5--0--|--5--2--5--0--5----------.||
C-|--3--0--3--0--3--0--3-----|--3--0--3-----3-----------||



    GUITAR ONE
           P.M...................          P.M....................

C-|---------------------------------|---------------------------------|
G-|---------------------------------|---------------------------------|
E-|---------------------------------|---------------------------------|
B-|----8\---------------------------|--8\-----------------------------|
F-|----8\---------------------------|--8\-----------------------------|
C-|----6\----0--0----0-0-0----0--0--|--6\----0--0----0-0-0----0-0-0---|

  |
  | GUITAT TWO

C-|---------------------------------|------------------------18~~~~---|
G-|---------------------------------|---------------------------------|
E-|-----16h17--16h17--16h17--16p15--|--16h17--16h17--16h17------------|
B-|---------------------------------|---------------------------------|
F-|---------------------------------|---------------------------------|
C-|---------------------------------|---------------------------------|



            P.M...................          P.M.......................
C-|---------------------------------|----------------------------------|
E-|---------------------------------|----------------------------------|
B-|----8\---------------------------|--8\------------------------------|
F-|----8\---------------------------|--8\------------------------------|
C-|----6\----0--0----0-0-0----0--0--|--6\----0--0----0-0-0----0-0-0-0--|
  |
  | 

C-|---------------------------------|------------------------18~~~~---|
G-|---------------------------------|---------------------------------|
E-|-----16h17--16h17--16h17--16p15--|--16h17--16h17--16h17------------|
B-|---------------------------------|---------------------------------|
F-|---------------------------------|---------------------------------|
C-|---------------------------------|---------------------------------|

 
 
 3RD VERSE (SAME AS VERSE ONE)

  THEN PLAY
                                               P.M.....................

C-|-----------------|-----------------|-----------------------------------|
G-|-----------------|-----------------|-----------------------------------|
E-|-----------------|-----------------|-----------------------------------|
B-|--5--------------|--7--------------|--8\-------------------------------|
F-|--5--------------|--7--------------|--8\-------------------------------|
C-|--3--------------|--5--------------|--6\----0--0----0-0-0----0-0-0-0---|


           P.M...................

C-|---------------------------------|-----------------|-----------------|
G-|---------------------------------|-----------------|-----------------|
E-|---------------------------------|-----------------|-----------------|
B-|--8\-----------------------------|--5--------------|--7--------------|
F-|--8\-----------------------------|--5--------------|--7--------------|
C-|--6\----0--0----0-0-0----0-0-0---|--3--------------|--5--------------|


  BRIDGE (SAME AS ABOVE)
  CHORUS (SAME AS ABOVE)

  GUITAR SOLO
  
  GUITAR ONE
     P.M....................................................................................

C-|------------------------|------------------------|-----------------------|
G-|------------------------|------------------------|-----------------------|
E-|------------------------|------------------------|-----------------------|
B-|------------------------|------------------------|-----------------------|
F-|------------------------|------------------------|-----------------------|
C-|-0-0-----0-0-0---0-0-0--|-0-0-----0-0-0---0-0-0--|-0-0----0-0-0---0-0-0--|

  |
  |GUITAR TWO
  |  T.P...........           T.P....................................

C-|------------------------|------------------------|-----------------------|
G-|-/18------------19\-----|--15--------------------|-/18-----------19\-----|
E-|------------------------|------------------------|-----------------------|
B-|------------------------|------------------------|-----------------------|
F-|------------------------|------------------------|-----------------------|
C-|------------------------|------------------------|-----------------------|



     P.M.....................................................................

C-|------------------------------|------------------------------------------|
G-|------------------------------|------------------------------------------|
E-|------------------------------|------------------------------------------|
B-|------------------------------|------------------------------------------|
F-|------------------------------|------------------------------------------|
C-|--0--0-------0-0-0----0-0-0---|--0----0-----------0--0--0-----0--0--0----|

  |
  |  T.P................

C-|------------------------------|--------21-------21-------21--------22~~~~|
G-|--15-----------------14---13--|-----20-------20-------20--------20-------|
E-|------------------------------|--18-------18-------18--------18----------|
B-|------------------------------|------------------------------------------|
F-|------------------------------|------------------------------------------|
C-|------------------------------|------------------------------------------|


     P.M......................................

C-|---------------------------------------------|
G-|---------------------------------------------|
E-|---------------------------------------------|
B-|---------------------------------------------|
F-|---------------------------------------------|
C-|--0-----0-------------0--0--0-----0--0--0----|

  |
  |

C-|--------21-------21-------21--------22~~~~---|
G-|-----20-------20-------20--------20----------|
E-|--18-------18-------18--------18-------------|
B-|---------------------------------------------|
F-|---------------------------------------------|
C-|---------------------------------------------|


     P.M.......................................................................

C-|-------------------------------------------------------------------------|
G-|-------------------------------------------------------------------------|
E-|-------------------------------------------------------------------------|
B-|-------------------------------------------------------------------------|
F-|-------------------------------------------------------------------------|
C-|--0---------0-------------------------0----0----0--------0----0----0-----|

  |
  | T        T        T        T        T        T        T        T

C-|-22p14p12-21p14p12-20p14p12-19p14p12-22p14p12-21p14p12-20p14p12-19p14p12-|
G-|-------------------------------------------------------------------------|
E-|-------------------------------------------------------------------------|
B-|-------------------------------------------------------------------------|
F-|-------------------------------------------------------------------------|
C-|-------------------------------------------------------------------------|



     P.M.......................................................................

C-|-------------------------------------------------------------------------|
G-|-------------------------------------------------------------------------|
E-|-------------------------------------------------------------------------|
B-|-------------------------------------------------------------------------|
F-|-------------------------------------------------------------------------|
C-|--0--------0-------------------------0----0----0----------0----0----0----|

  |
    T        T        T        T        T        T        T        T

C-|-22p14p12-21p14p12-20p14p12-19p14p12-18p14p12-17p14p12-16p14p12-15p14p12-|
G-|-------------------------------------------------------------------------|
E-|-------------------------------------------------------------------------|
B-|-------------------------------------------------------------------------|
F-|-------------------------------------------------------------------------|
C-|-------------------------------------------------------------------------|



                                               P.M.....................

C-|-----------------|-----------------|-----------------------------------|
G-|-----------------|-----------------|-----------------------------------|
E-|-----------------|-----------------|-----------------------------------|
B-|--5--------------|--7--------------|--8\-------------------------------|
F-|--5--------------|--7--------------|--8\-------------------------------|
C-|--3--------------|--5--------------|--6\----0--0----0-0-0----0-0-0-0---|


           P.M...................

C-|---------------------------------|-----------------|-----------------|
G-|---------------------------------|-----------------|-----------------|
E-|---------------------------------|-----------------|-----------------|
B-|--8\-----------------------------|--5--------------|--7--------------|
F-|--8\-----------------------------|--5--------------|--7--------------|
C-|--6\----0--0----0-0-0----0-0-0---|--3--------------|--5--------------|


  BRIDGE (SAME AS ABOVE)
  CHORUS (SAME AS ABOVE)

  THEN PLAY

   GUITAR ONE
               P.M...................          P.M....................

C-||----------------------------------|----------------------------------||
G-||.---------------------------------|---------------------------------.||
E-||----------------------------------|----------------------------------||
B-||-----8\---------------------------|--8\------------------------------||
F-||.----8\---------------------------|--8\-----------------------------.||
C-||-----6\----0--0----0-0-0----0--0--|--6\----0--0----0-0-0----0-0-0----||

  |
  | GUITAR TWO

C-||----------------------------------|-----------------------18~~~~----||
G-||.---------------------------------|--------------------------------.||
E-||-----16h17--16h17--16h17--16p15---|--16h17--16h17--16h17------------||
B-||----------------------------------|---------------------------------||
F-||.---------------------------------|--------------------------------.||
C-||----------------------------------|---------------------------------||



            P.M...................          P.M....................

C-|---------------------------------|---------------------------------|
G-|---------------------------------|---------------------------------|
E-|---------------------------------|---------------------------------|
B-|----8\---------------------------|--8\-----------------------------|
F-|----8\---------------------------|--8\-----------------------------|
C-|----6\----0--0----0-0-0----0--0--|--6\----0--0----0-0-0----0-0-0---|

  |
  | 

C-|---------------------------------|------------------------18~~~~---|
G-|---------------------------------|---------------------------------|
E-|-----16h17--16h17--16h17--16p15--|--16h17--16h17--16h17------------|
B-|---------------------------------|---------------------------------|
F-|---------------------------------|---------------------------------|
C-|---------------------------------|---------------------------------|



            P.M...................          P.M.......................
C-|---------------------------------|----------------------------------|
E-|---------------------------------|----------------------------------|
B-|----8\---------------------------|--8\------------------------------|
F-|----8\---------------------------|--8\------------------------------|
C-|----6\----0--0----0-0-0----0--0--|--6\----0--0----0-0-0----0-0-0-0--|
  |
  | 
C-|---------------------------------|------------------------18~~~~---||
G-|---------------------------------|---------------------------------||
E-|-----16h17--16h17--16h17--16p15--|--16h17--16h17--16h17------------||
B-|---------------------------------|---------------------------------||
F-|---------------------------------|---------------------------------||
C-|---------------------------------|---------------------------------||

TOP cifras de Alice Cooper

  1. I Got A Line On You
  2. Poison Intro
  3. How you gonna see me now
  4. Alma Mater
  5. Poison
  6. Only Women Bleed
  7. No more Mr. Nice Guy
  8. Saga Of Jesse Jane
  9. Steel That Car
  10. Clones

Pela Web