Cifras Web
Alice Cooper

Gutter Cats Vs The Jets

Alice Cooper

8 acessos

I've put a lot of care in to this tab, hope you enjoy it. I'm nearly finished tabbing 
off Schools Out (album) so look out for it.

Intro (played slow)                               (slide slowly)
G--9--9--9-9--\8--8--8-8--\7--7--7-7--7-----6-6--5----4-4-3-////-9-|
D------------------------------------------------------------------|
A------------------------------------7-7-0---0--5-5----------------|
E-7--7----7--7---7----7--7---7----7-----------------3--3-----------|

(play fast)
G----5h7--7--7--5-4-5---5--4-2-4---4---14-12-11--|
D-7-9---00-00-0-0-0-0-00-0-0-0-0-00-0--0--0--0---|
A------------------------------------------------|
E------------------------------------------------|

G----5h7--7--7--5-4-5---5--4-2-4----4---14-12-11-9-7-9-11-12--|
D-7-9---00-00-0-0-0-0-00-0-0-0-0-00--0--0--0--0--0-0-0-0--0---|
A-------------------------------------------------------------|
E-------------------------------------------------------------|

G-7h9-99-9-9-99-7h9-99-9-9\5h7-77-7-7-77-7-77-7-7-77----|
D-------------------------------------------------------|
A-------------------------------------------------------|
E-------------------------------------------------------|

G-9-99-9-9-99-7h9-99-9-9\5h7-77-7-7-77-------------------|keep your fingers
D-------------------------------------10h12\\\\\\\\\-----|walking as you
A--------------------------------------------------------|slide  down the
E--------------------------------------------------------|neck.

Verse
G---------------------------------------------------------------|
D-0-0-3h4-0-00---0-0-3h4-0-00---0-0-3h4-9\----------------------|play
A---------------0--------------0-----------2-0-2-0-2-0--0223344-|twice
E---------------------------------------------------------------|

G----------------5-5-5---3-3-33-3------------|
D--------------------------------------------|
A-5-5-55-5-5-3--------1-----------0-00-0-----|
E--------------------------------------------|

Interlude
G----5h7--7--7--5-4-5---5--4-2-4---4---14-12-11--|
D-7-9---00-00-0-0-0-0-00-0-0-0-0-00-0--0--0--0---|
A------------------------------------------------|
E------------------------------------------------|

G----5h7--7--7--5-4-5---5--4-2-4----4---14-12-11-9-7-9-11-12--|
D-7-9---00-00-0-0-0-0-00-0-0-0-0-00--0--0--0--0--0-0-0-0--0---|
A-------------------------------------------------------------|
E-------------------------------------------------------------|

Verse 2
G---------------------------------------------------|
D-7--5-7--5-7-7--5-7-5-3----------------------4-5---|
A--7-----7-----7--------5--3-5---3-5-5--3-5--7------|
E------------------------5-----5------5-------------|

G--------------------------------------------------|use the same
D-7--5-7--5-7-7--5-7-5--------------12\\\\\\-------|technique as
A--7-----7-----7-------5--3-5---3-5----------------|in the fast
E-----------------------5-----5--------------------|intro

G---------------------------------------------------------------|
D-0-0-3h4-0-00---0-0-3h4-0-00---0-0-3h4-9\----------------------|
A---------------0--------------0-----------2-0-2-0-2-0--0223344-|
E---------------------------------------------------------------|

G----------------5-5-5---3-3-33-3------------|
D--------------------------------------------|
A-5-5-55-5-5-3--------1-----------0-00-0-----|
E--------------------------------------------|

Interlude
G----5h7--7--7--5-4-5---5--4-2-4----4---14-12-11-9-7-9-11-12-14-11-8---|
D-7-9---00-00-0-0-0-0-00-0-0-0-0-00--0--0--0--0--0-0-0-0--0--0--0--0-8-|
A--------------------------------------------------------------------0-|
E----------------------------------------------------------------------|

The Face Off!
G-7h9-99-9-9-99-999-7h9-99-9-9-99-999-7h9-99-9-9-99-999-7h9\\\\\---|
D------------------------------------------------------------------|
A------------------------------------------------------------------|
E------------------------------------------------------------------|

G-------------------------------------|
D-1h2-22-2-2-22-222-1h2-22-2-2-22-222-|repeat til
A-------------------------------------|you hear
E-------------------------------------|different

DIE!!
click
click                                    breakdown
G-------------------------------234-     ------2---------|
D-33333333333333333...222222-444----     --3--------3----|
A-----------------------------------     ----1----3------|
E-----------------------------------     ----------------|
do this while its all west side story

when you're a jet you're a jet all the way
G-----------------------------------------------|
D-----------------------------------------------|
A--8888888888888888888888888888888888888888888--|
E-----------------------------------------------|

when you're a jet let 'em do what they can
G-----------------------------------------------------|
D-----------------------------------------------------|
A--6666666666666666666666666666666666666666666666666--|
E-----------------------------------------------------|

the jets are in gear they're always well respected
G--------------------------------------------------------------|
D--5555555555555555555555555555555555555555555555555----/3-----|
A---------------------------------------------------------3----|
E--------------------------------------------------------------|

you're never alone when compony's expected
G---------------------------------------------------------------|
D--5555555555555555555555555555555555555555555555555------------|
A---------------------------------------------------------------|
E---------------------------------------------------------------|
you're well respected
G-----------------------------------------------------|
D---------3-------------------------------------------|
A----1--5---------------------------------------------|
E--1--------1-----666666666666666666666666666666666---|

when you're a jet
G------------------------------------------|
D------------------------------------------|
A--6--6--6--6-88888888888888888888888888---|
E------------------------------------------|

fin
G------------------|
D------------------|
A---4--------------|                  !!!!POW!!!!
E------4----6------|

TOP cifras de Alice Cooper

  1. I Got A Line On You
  2. Poison Intro
  3. How you gonna see me now
  4. Alma Mater
  5. Poison
  6. Only Women Bleed
  7. No more Mr. Nice Guy
  8. Saga Of Jesse Jane
  9. Steel That Car
  10. Clones

Pela Web