Cifras Web
Alice Cooper

Poison

Alice Cooper

36 acessos

                    part 1                                  part 2


:----------------------------------------::--------------------------------
:----------------------------------------::--------------------------------
:-----------9-----7---------5------5-----::-----------9---7---------5-----5
:7--7-7-----------------4H5----4H5-------::-7--7-7--------------4h5---4h5--
:5--5----5-----5-----5--------------7--5-::-5--5----5---5----5-------------
:----------------------------------------::--------------------------------




                 part 3


:------------------------------------------------------:
:------------------------------------------------------:
:------------------------------------------------------:
:------------------------------------------------------:
:-*-*-*----Slide-pick--------12<-----------------------:
:-*-*-*----against-strings---10<-----------------------:



THE SONG STARTS WITH PART 1.2.3 THEN COUNTINUES TO PART 1 TWICE THEN 

TO PART 4.

                 part 4

 D                                                   D 

:--------------------------------------------------------
:--------------------------------------------------------
:-------------9-----7----------9------7------------------
:7--7---7----------------7------------------7-------7----
:5--5------5-----5----5-----5-----5------5-----5----5----
:--------------------------------------------------------


Start of words:
your cruel device
your blood like ice
one look could kill       <-----start of muted chords
my pain your thrill
the chords are done with right hand muting,the first four not being played
time.the two or three d then chorus starts.

4 dm>
----------------------------------------------------------------------------
----3-----3---------------6-----6-------------1----1----------7-7-7-7-7-7-7-
--3----------4--3--4---------------7-6-7----1---------2-1-2---7-7-7-7-7-7-7-
5------5----------------8----8------------3-----3-------------7-7-7-7-7-7-7-
---------------------6----------------------------------------5-5-5-5-5-5-5-
----------------------------------------------------------------------------


PRE-chorus:

2

-


4  Gm-Eb/Bb-f/Cm-Ab/Eb-Bb/Am-f/c-g/Dm-Bb/f-c/



I WANNA LOVE YOU BUT I BETTER NOT TOUCH
I WANNA HOLD YOU BUT MY SENSES TELL ME TO STOP
I WANNA KISS YOU BUT I WANT IT TOO MUCH

CHORUS:

4

-
4  Dm/Bb/F/C/ x4  Bb strike the chord one time then the solo begins.
YOU'RE POSION
YOU'RE POISON RUNNING THROUGH MY VEINS
YOU'RE POSION
I DON'T WANNA BREAK THESE CHAINS!
POSION...........    <------------strike bb
solo:

------------------------------------------10--------------------------------
--------------------------------------13b----13--10--------13---------------
---------------->9--7-------5-------------------------11h12-----11br--------
-------5--5------------4h5---------------------------------------------12---
-3b-----3--3------------------5>7--5----------------------------------------
----------------------------------------------------------------------------



-------------------------------------15-------15--17---20b------------------
-------------15-17-18-------15-17-18-------18-------------------------------
---------17-----------------------------------------------------------------
--10------------------------------------------------------------------------
----------------------------------------------------------------------------
----------------------------------------------------------------------------


INDEX FOR NOTATIONS:

>  <  =  SLIDE WITHOUT FRETTING THE NOTE

3b    =  BEND THE NOTE DOWN A HALF STEP

11br  =  FRET THE NOTE. BEND IT A HALF STEP. THEN RELEASE IT.

20b   =  BEND THE NOTE A WHOLE STEP.

TOP cifras de Alice Cooper

  1. I Got A Line On You
  2. Poison Intro
  3. How you gonna see me now
  4. Alma Mater
  5. Poison
  6. Only Women Bleed
  7. No more Mr. Nice Guy
  8. Saga Of Jesse Jane
  9. Steel That Car
  10. Clones

Pela Web