Cifras Web
Alice Cooper

Woman Machine

Alice Cooper

10 acessos

b = bend
r = release
\ = slide up neck
/ = slide down neck
h = hammer-on
p = pull-off
~ = hold note

(the song starts with a slide on the A string from the 12th fret to the top of the neck)


E|----------------------|
B|----------------------|
G|----------------------| 6x
D|---2------0----2------|
A|------2/4----2---2----|
E|-0-----------------3--|



E|----------------------------------------|
B|----------------------------------------|
G|----------------------------------------|
D|---2-------------------2-------------0--|
A|-------------2-0-----------------2-0----|
E|-0---0-2-3-0-----3---0---0-2-3-0--------|


“She'll do your work in half the time
Never sick and can't go blind
Oh, woman machine"

E|----------------------------------------|
B|----------------------------------------|
G|----------------------------------------| 2x
D|---2-------------------2-------------0--|
A|-------------2-0-----------------2-0----|
E|-0---0-2-3-0-----3---0---0-2-3-0--------|


“Brains of tape that fill her head
She knows more now than all the dead
Oh, woman machine"

E|----------------------------------------|
B|----------------------------------------|
G|----------------------------------------| 2x
D|---2-------------------2-------------0--|
A|-------------2-0-----------------2-0----|
E|-0---0-2-3-0-----3---0---0-2-3-0--------|



E|----------------------------------------|
B|----------------------------------------|
G|----------------------------------------|
D|---2-------------------2-------------0--|
A|-------------2-0-----------------2-0----|
E|-0---0-2-3-0-----3---0---0-2-3-0--------|


“Oh, woman machine
Oh, woman machine
Oh, woman machine
Oh, woman machine"

E|--------------------------------------|
B|--------------------------------------|
G|---4-----2---2---4----4-----2---2-----| 4x
D|-4---2-4---4---4----4---2-4---4---4-2-|
A|--------------------------------------|
E|--------------------------------------|



E|--------|
B|--------|
G|-2~~----|
D|-2~~----|
A|-0~~----|
E|--------|



E|----------------------|
B|----------------------|
G|----------------------| 2x
D|---2------0----2------|
A|------2/4----2---2----|
E|-0-----------------3--|


“Heart of steel and skin that's cold
Can't wear her out, she can't grow old
Oh, woman machine"

E|----------------------------------------|
B|----------------------------------------|
G|----------------------------------------| 2x
D|---2-------------------2-------------0--|
A|-------------2-0-----------------2-0----|
E|-0---0-2-3-0-----3---0---0-2-3-0--------|


“She goes to bed when her work is through
She'll do it all, just change the tubes
Oh, woman machine"

E|----------------------------------------|
B|----------------------------------------|
G|----------------------------------------| 2x
D|---2-------------------2-------------0--|
A|-------------2-0-----------------2-0----|
E|-0---0-2-3-0-----3---0---0-2-3-0--------|


“Oh, woman machine
Oh, woman machine
Oh, woman machine
Oh, woman machine-ine"

E|--------------------------------------|
B|--------------------------------------|
G|---4-----2---2---4----4-----2---2-----| 4x
D|-4---2-4---4---4----4---2-4---4---4-2-|
A|--------------------------------------|
E|--------------------------------------|



E|--------|
B|--------|
G|-2~~----|
D|-2~~----|
A|-0~~----|
E|--------|



E|--------------------------------------|
B|--------------------------------------|
G|---4-----2---2---4----4-----2---2-----|
D|-----2-4---4---4--------2-4---4---4-2-|
A|-2------------------2-----------------|
E|--------------------------------------|



E|------------------------|
B|------------------------|
G|---12-------------------| 8x
D|---12-------------------|
A|---10----------2-0------|
E|-0-----0-2-3-0-----3-2--|


“Oh, woman machine
Oh, woman machine
Oh, woman machine
Oh, woman"

E|--------------------------------------|
B|--------------------------------------|
G|---4-----2---2---4----4-----2---2-----| 4x
D|-4---2-4---4---4----4---2-4---4---4-2-|
A|--------------------------------------|
E|--------------------------------------|



E|---------------------|
B|---------------------|
G|---------------------|
D|-7--4--7--9---12--9--|
A|-7--4--7--9---12--9--|
E|-5--2--5--7---10--7--|


“She can't talk back
With no playback
But she'll listen
To all your woe"

E|---------------------------------14------|
B|---------------------------------17b19~~-|
G|-----------------------------------------|
D|-12-9---12-9---12-9---4--7--9------------|
A|-12-9---12-9---12-7---4--7--9------------|
E|-10-7---10-7---10-7---2--5--7------------|


Trade your old one
For a new one
They just don't make 'em like they used to
No!"

E|-------------------------------------------------|
B|-------------------------------------------------|
G|-----------------------------------------2h4-----|
D|-12-9---12-9---12-9---4--7--9--------2h4-----2h4-|
A|-12-9---12-9---12-7---4--7--9----2h4-------------|
E|-10-7---10-7---10-7---2--5--7--------------------|


“Oh, woman machine
Oh, woman machine
Oh, woman machine
Oh, woman machine"

E|--------------------------------------|
B|--------------------------------------|
G|---4-----2---2---4----4-----2---2-----| 4x
D|-4---2-4---4---4----4---2-4---4---4-2-|
A|--------------------------------------|
E|--------------------------------------|



E|--------|
B|--------|
G|-2~~----|
D|-2~~----|
A|-0~~----|
E|--------|


E|--------------|
B|-12-----------|
G|-12---12--11--| (repeat till the end)
D|-12---12--11--|
A|-10---10---9--|
E|--------------|

TOP cifras de Alice Cooper

  1. I Got A Line On You
  2. Poison Intro
  3. How you gonna see me now
  4. Alma Mater
  5. Poison
  6. Only Women Bleed
  7. No more Mr. Nice Guy
  8. Saga Of Jesse Jane
  9. Steel That Car
  10. Clones

Pela Web