Cifras Web
Alien Ant Farm

1000 Days

Alien Ant Farm

13 acessos

Tabber : Wrath_014 (spairo)

Intro:

E||--------------------------------------------------|
B||--------------------------------------------------|
G||--------------------------------------------------|
D||----------------4--4--2----2--5--5--4--4--3--3----|
A||--2--3--4--5----2--2--0----0--5--5--4--4--3--3----|
E||--0--1--2--3----2--2--0----0--3--3--2--2--1--1----|


Veres:

E||--------------------------|
B||--------------------------|
G||--9--9--9--9--9--9--9--9--|
D||--------------------------|
A||--7--7--7--7--7--7--7--7--|
E||--------------------------|

PM............................

Chorus:

E||-------------------------------------------------|
B||---0----0----0----0------0-----0-----0-----0-----|
G||---5----5----5----5------14----14----14----14----|
D||---2----2----2----2------------------------------|
A||---3----3----3----3------14----14----14----14----|
E||-------------------------------------------------|



E||-------------------------------------------------|
B||-0-----0-----0-----0---0-----0-----0-----0-----0-|
G||-12----12----12----12/-14----12----12----12----14|
D||-------------------------------------------------|
A||-10----10----10----10/-12----10----10----10----12|
E||-------------------------------------------------|


Part afther the chorus:

E||------------------------------------------------------------------------|
B||------------------------------------------------------------------------|
G||--------------4--4---------------2-2------0-0---0-0----0-0----0-0-------|
D||--------2--2--------2--2-----1-1----1-1---------------------------------|
A||--3--3-------------------2-2--------------------------------------------|
E||---------------------------------------3-3---2-2----1-1----0-0----------|



E||-------------------------------------------------|
B||-------------------------------------------------|
G||5-5-5-5--14-14-14-14-----------------------------|
D||2-2-2-2------------------------------------------|
A||3-3-3-3--14-14-14-14-----------------------------|
E||-------------------------------------------------|


Interlude:

E||---------------|
B||---------------|
G||---------------|
D||---------------|
A||---------------|
E||1-1-1-1-1-1-1-1|



E||-------------------------------------------------------------------------|
B||-------------------------------------------------------------------------|
G||x--4--4--x-x-4--x-x-4/--x------------------------------------------------|
D||x--4--4--x-x-4--x-x-4/--x--------2---2-4/-5--5/-7-------2---2-4/-5--5/-7-|
A||x--2--2--x-x-2--x-x-2/--x---2----2---2-4/-5--5/-7--2----2---2-4/-5--5/-7-|
E||x--2--2--x-x-2--x-x-2/--x---0----0---0-2/-3--3/-5--0----0---0-2/-3--3/-5-|



E||----------------------------------------------------------------------|
B||----------------------------------------------------------------------|
G||--5------5------5-----x--2--2--x-x-2--x-x-2---------------------------|
D||--5------5------5-----x--2--2--x-x-2--x-x-2--5--------2---2-4/-5--5/-7|
A||--3------3------3-----x--0--0--x-x-0--x-x-0--5---2----2---2-4/-5--5/-7|
E||--3------3------3-----x--0--0--x-x-0--x-x-0--3---0----0---0-2/-3--3/-5|



E||----------------------------------------------------------------------|
B||----------------------------------------------------------------------|
G||---------------------------------------------x--4--4--x-x-4--x-x-4/--x|
D||------2---2-4/-5--5/-7---4------4------4-----x--4--4--x-x-4--x-x-4/--x|
A||-2----2---2-4/-5--5/-7---4------4------4-----x--2--2--x-x-2--x-x-2/--x|
E||-0----0---0-2/-3--3/-5---2------2------2-----x--2--2--x-x-2--x-x-2/--x|



Well thats all don't forget to rate:)

TOP cifras de Alien Ant Farm

  1. Stranded
  2. Death Day Acoustic
  3. Movies Live
  4. Attitude
  5. Nova Hands
  6. Sarah Wynn
  7. It Could Happen
  8. Orange Appeal
  9. Hope
  10. Rubber Mallet

Pela Web