Cifras Web
Alien Ant Farm

Drifting Apart

Alien Ant Farm

12 acessos

Drifitng Apart
truANT

Tuning:Standard
Strumming not shown 100%

Intro/Verse

e|-------------------------------------------------------------------------|
B|-------------------------------------------------------------------------|
G|-------------------------------------------------------------------------|
D|-------------------------------------------------------------------------|
A|-7-7-7\3---7/8-5-4-5-5-7-3---7-7-----------------------------------------|
E|-5-5-5\1---5/6-5-4-5-5-5-1---5-5-0let ring-------------------------------|

 

Pre chorus...We're drifing apart

e|-------------------------------------------------------------------------|
B|-------------------------------------------------------------------------|
G|-------------------------------------------------------------------------|
D|-4-----6---7---3----4----6---11---2--------------------------------------|
A|-5-----7---8---4----5----7---12---3--------------------------------------|
E|-------------------------------------------------------------------------|




e|-------------------------------------------------------------------------|
B|-------------------------------------------------------------------------|
G|-------------------------------------------------------------------------|
D|-------------------------------------------------------------------------|
A|-3--5-------3--5------3-5-5-5-5-3-5-5-5-5--------------------------------|
E|-------3-1-------3-1-----------------------------------------------------|


Chorus

   Time      Hands     And I wonder        We   Stand       We're Drifting

e|-------------------------------------------------------------------------|
B|-------------------------------------------------------------------------|
G|-------------------------------------------------------------------------|
D|--10--------10-------8------------------/12----12---10---8---------------|
A|--8---------7--------6------------------/10----12---10---8---------------|
E|-----------------------------------------------10---8----6---------------|



     Apart          Do           Apart

e|-------------------------------------------------------------------------|
B|-------------------------------------------------------------------------|
G|-------------------------------------------------------------------------|
D|----7-------------8-------------7----------------------------------------|
A|----8-------------8-------------8----------------------------------------|
E|----5-------------6-------------5----------------------------------------|



Interlude before verse 2

e|-------------------------------------------------------------------------|
B|-------------------------------------------------------------------------|
G|-------------------------------------------------------------------------|
D|-7-7-7\3--7/8-6-5-4-5-5-7-3--7-8-7-5-------------------------------------
A|-5-5-5\1--5/6-6-5-4-5-5-5-1--5-6-5-3-------------------------------------|
E|-------------------------------------------------------------------------|



Verse 

Chorus


Solo...double pick....pattern not shown

e|-------------------------------------------------------------------------|
B|---------------------------------------------------------19b______-------|
G|-10----12--14-10--9br--14-16--17---19--16br--21--17--16------------------|
D|-------------------------------------------------------------------------|
A|-------------------------------------------------------------------------|
E|-------------------------------------------------------------------------|


Ending 

e|----------------------------7--------------------------------------------|
B|----------------------------6--------------------------------------------|
G|----------------------------x--------------------------------------------|
D|-8-------7-----8-----3------5--------------------------------------------|
A|-8-------8-----8-----3------5--------------------------------------------|
E|-6-------5-----6-----1---------------------------------------------------|





| /  slide up
| \  slide down
| h  hammer-on
| p  pull-off
| ~  vibrato
| +  harmonic
| x  Mute note
=====================================================================

TOP cifras de Alien Ant Farm

  1. Stranded
  2. Death Day Acoustic
  3. Movies Live
  4. Attitude
  5. Nova Hands
  6. Sarah Wynn
  7. It Could Happen
  8. Orange Appeal
  9. Hope
  10. Rubber Mallet

Pela Web