Cifras Web
Alien Ant Farm

Echo Park

Alien Ant Farm

10 acessos

Intro:

e|-------------------------------------------------------------------------|
B|-------------------------------------------------------------------------|
G|-------------0-----------------------------------------------------------|
D|-------6/7-6-5-----------------------------------------------------------|
A|-4-4-4-4/5-4-------------------------------------------------------------|
E|-2-2-2-------------------------------------------------------------------|



e|-------------------------------------------------------------------------|
B|-------------------------------------------------------------------------|
G|-------------------------------------------------------------------------|
D|-------------------------------------------------------------------------|
A|----------6b----------6b---5---4-----------------------------------------|
E|-6b-6b-6b----6b-6b-6b----5---5-------------------------------------------|



Verso:

e|-------------------------------------------------------------------------|
B|-------------------------------------------------------------------------|
G|-------------------------------------------------------------------------|
D|-------------------------------------------------------------------------|
A|----------6b----------6b-----5-4---4-------------------------------------|
E|-6b-6b-6b----6b-6b-6b----5-5-----5---------------------------------------|


Trêmolo:

e|---------------5------8--------------------------------------------------|
B|-7------6------7------7--------------------------------------------------|
G|-4------4------4------5--------------------------------------------------|
D|-------------------------------------------------------------------------|
A|-------------------------------------------------------------------------|
E|-------------------------------------------------------------------------|



e|------------------------5------------------------------------------------|
B|-7----6----7---6----8----------------------------------------------------|
G|-4----4----4---4------4---4----------------------------------------------|
D|-------------------------------------------------------------------------|
A|-------------------------------------------------------------------------|
E|-------------------------------------------------------------------------|



Refrão:

e|-------------------------------------------------------------------------|
B|-------------------------------------------------------------------------|
G|-------------------------------------------------------------------------|
D|-4-----5-----4-----2-----------------------------------------------------|
A|-4-----5-----2-----2-----------------------------------------------------|
E|-2-----3-----2-----0-----------------------------------------------------|




e|-------------------------------------------------------------------------|
B|-------------------------------------------------------------------------|
G|--------------0---------------0----------0----------0--------------------|
D|--------6/7-6-5---------6/7-6-5--4-6/7-6-5--2-6/7-6-5--------------------|
A|-4-4-4--4/5-4----5-5-5--4/5-4----2-4/5-4----2-4/5-4----------------------|
E|-2-2-2-----------3-3-3-----------2----------0----------------------------|



e|-------------------------------------------------------------------------|
B|-------------------------------------------------------------------------|
G|-------------------------------------------------------------------------|
D|-4-----5------2----------------------------------------------------------|
A|-4-----5------2----4-4-5-4-3-4-5-----------------------------------------|
E|-2-----3------0----2-2-3-2-1-2-3-----------------------------------------|



Ponte:

e|--/7--0-0-0-0------------------------------------------------------------|
B|------5-5/4-5------------------------------------------------------------|
G|-------------------------------------------------------------------------|
D|-------------------------------------------------------------------------|
A|-------------------------------------------------------------------------|
E|-------------------------------------------------------------------------|



e|-------------------------------------------------------------------------|
B|-------------------------------------------------------------------------|
G|-------------------------------------------------------------------------|
D|-6-----4----7----6----7----6----4---3----10---11--10---------------------|
A|-4-----2----5----4----7----4----2---1----8----9---10---------------------|
E|-4-----2----5----4----5----4----2---1----8----9---8----------------------|



e|-------------------------------------------------------------------------|
B|-------------------------------------------------------------------------|
G|-6-----4----7----6----7----6----4---3----10---1--------------------------|
D|-x-----x----x----x----x----x----x---x----x----x---10---------------------|
A|-4-----2----5----4----5----4----2---1----8----9---x----------------------|
E|--------------------------------------------------8----------------------|



Refrão:

e|-------------------------------------------------------------------------|
B|-------------------------------------------------------------------------|
G|-------------------------------------------------------------------------|
D|-4-----5-----4-----2-----------------------------------------------------|
A|-4-----5-----2-----2-----------------------------------------------------|
E|-2-----3-----2-----0-----------------------------------------------------|




e|-------------------------------------------------------------------------|
B|-------------------------------------------------------------------------|
G|--------------0---------------0----------0----------0--------------------|
D|--------6/7-6-5---------6/7-6-5--4-6/7-6-5--2-6/7-6-5--------------------|
A|-4-4-4--4/5-4----5-5-5--4/5-4----2-4/5-4----2-4/5-4----------------------|
E|-2-2-2-----------3-3-3-----------2----------0----------------------------|


e|-------------------------------------------------------------------------|
B|-------------------------------------------------------------------------|
G|-------------------------------------------------------------------------|
D|-4-----5------2----------------------------------------------------------|
A|-4-----5------2----4-4-5-4-3-4-5-----------------------------------------|
E|-2-----3------0----2-2-3-2-1-2-3-----------------------------------------| 


Intro/Fim:

e|-------------------------------------------------------------------------|
B|-------------------------------------------------------------------------|
G|-------------0-----------------------------------------------------------|
D|-------6/7-6-5-----------------------------------------------------------|
A|-4-4-4-4/5-4-------------------------------------------------------------|
E|-2-2-2-------------------------------------------------------------------|


e|-------------------------------------------------------------------------|
B|-------------------------------------------------------------------------|
G|-------------------------------------------------------------------------|
D|-------------------------------------------------------------------------|
A|----------6b----------6b---5---4-----------------------------------------|
E|-6b-6b-6b----6b-6b-6b----5---5-------------------------------------------|

TOP cifras de Alien Ant Farm

  1. Stranded
  2. Death Day Acoustic
  3. Movies Live
  4. Attitude
  5. Nova Hands
  6. Sarah Wynn
  7. It Could Happen
  8. Orange Appeal
  9. Hope
  10. Rubber Mallet

Pela Web