Cifras Web
Alien Ant Farm

Forgive And Forget

Alien Ant Farm

14 acessos

Verso 1:

e|-------------------------------------------------------------------------|
B|-------------------------------------------------------------------------|
G|-------------------------------------------------------------------------|
D|--------xxxxxx--------xxxxxx--------xxxxxx--------------------xxxxx------|
A|---5----xxxxxx----5---xxxxxx----5---xxxxxx-----9-----7-----5--xxxxx------|
E|-7----7-------0-7----7------0-7----7------0-10--10-5---5-3---3-----------|



e|-------------------------------------------------------------------------|
B|-------------------------------------------------------------------------|
G|-------------------------------------------------------------------------|
D|---------------xxxxxx----------------------------------------------------|
A|-----5-----5---xxxxxx----4-----------------------------------------------|
E|-0-3---3-2---2-------0-2---2---------------------------------------------|



Refrão:

e|-------------------------------------------------------------------------|
B|-------------------------------------------------------------------------|
G|-7-7-7-7-7-9-9-9-7-7-7-7-7-9-9-9-----------------6-6-6-6-----------------|
D|-x-x-x-x-x-x-x-x-x-x-x-x-x-x-x-x-5-5-5-5---------x-x-x-x-----------------|
A|-5-5-5-5-5-5-5-5-5-5-5-5-5-5-5-5-5-5-5-5-5-5-5-5-4-4-4-4-----------------|
E|---------------------------------3-3-3-3-2-2-2-2-------------------------|



Antes do Verso 2:

e|----14-------------------------------------------------------------------|
B|-12----14-12-------------------------------------------------------------|
G|-------------11----------------------------------------------------------|
D|----------------11-9~/---------------------------------------------------|
A|-------------------------------------------------------------------------|
E|-------------------------------------------------------------------------|


Verso 2:

e|-------------------------------------------------------------------------|
B|-------------------------------------------------------------------------|
G|-------------------------------------------------------------------------|
D|--------xxxxxx--------xxxxxx--------xxxxxx--------------------xxxxx------|
A|---5----xxxxxx----5---xxxxxx----5---xxxxxx-----9-----7-----5--xxxxx------|
E|-7----7-------0-7----7------0-7----7------0-10--10-5---5-3---3-----------|



e|-------------------------------------------------------------------------|
B|-------------------------------------------------------------------------|
G|-------------------------------------------------------------------------|
D|---------------xxxxxx----------------------------------------------------|
A|-----5-----5---xxxxxx----4-----------------------------------------------|
E|-0-3---3-2---2-------0-2---2---------------------------------------------|



Refrão:

e|-------------------------------------------------------------------------|
B|-------------------------------------------------------------------------|
G|-7-7-7-7-7-9-9-9-7-7-7-7-7-9-9-9-----------------6-6-6-6-----------------|
D|-x-x-x-x-x-x-x-x-x-x-x-x-x-x-x-x-5-5-5-5---------x-x-x-x-----------------|
A|-5-5-5-5-5-5-5-5-5-5-5-5-5-5-5-5-5-5-5-5-5-5-5-5-4-4-4-4-----------------|
E|---------------------------------3-3-3-3-2-2-2-2-------------------------|



Ponte:

e|-------------------------------------------------------------------------|
B|-----xxxx---------xxxxx--------------------------------------------------|
G|-----xxxx---------xxxxx-------------------Repete-------------------------|
D|-9-\-xxxx-0-7-9-\-xxxxx--------------------------------------------------|
A|-9-\-xxxx-0-7-9-\-xxxxx--------------------------------------------------|
E|-7-\------0-5-7-\--------------------------------------------------------|


Continuação: "YOU!!!!"

e|-------------------------------------------------------------------------|
B|-------------------------------------------------------------------------|
G|-7-----7---9---11--7-7-7-7-------------7-7-7-7-------9-9-----11-11-------|
D|-7-4-5-7---9---11--7-7-7-7-4-4-4-5-5-5-7-7-7-7-------9-9-----11-11-------|
A|-5-4-5-5-8-7-9-9---5-5-5-5-4-4-4-5-5-5-5-5-5-5-8-8-8-7-7-9-9-9--9--------|
E|---2-3---6---7-------------2-2-2-3-3-3---------6-6-6-----7-7-------------|



e|-------------------------------------------------------------------------|
B|-------------------------------------------------------------------------|
G|-------------------------------------------------------------------------|
D|-------------------------------------------------------------------------|
A|------------9------7-----------------------------------------------------|
E|-7-10-7--10--10--5---5---------------------------------------------------|



Refrão:
e|-------------------------------------------------------------------------|
B|-------------------------------------------------------------------------|
G|-7-7-7-7-7-9-9-9-7-7-7-7-7-9-9-9-----------------6-6-6-6-----------------|
D|-x-x-x-x-x-x-x-x-x-x-x-x-x-x-x-x-5-5-5-5---------x-x-x-x-----------------|
A|-5-5-5-5-5-5-5-5-5-5-5-5-5-5-5-5-5-5-5-5-5-5-5-5-4-4-4-4-----------------|
E|---------------------------------3-3-3-3-2-2-2-2-------------------------|

TOP cifras de Alien Ant Farm

  1. Nova Hands
  2. Stranded
  3. Attitude
  4. Death Day Acoustic
  5. Movies Live
  6. Sarah Wynn
  7. It Could Happen
  8. Orange Appeal
  9. Hope
  10. Rubber Mallet

Pela Web