Cifras Web
Alien Ant Farm

Glow

Alien Ant Farm

12 acessos

       Tabber: Connor Gent.

 I love A.A.F.
  
   intro
    e-----------------|
    B-----------------|
    G-----------------|
    D-555-555-555-555-|x4
    A-333-222---------|
    E---------666-555-|

    e-----------------|
    B-----------------|
    G-----------------|
    D-555-333-555-333-|
    A-333-555-666-555-|
    E-----------------|

    e----------------------------|
    B----------------------------|
    G----------------------------|
    D----------------------555555|
    A-555555-666666-777777-222222|
    E-333333-333333-333333-xxxxxx|

    e-----------------|
    B-----------------|
    G-----------------|
    D-555-555-555-555-|x2
    A-333-222---------|
    E---------666-555-|

    e-----------------|
    B-----------------|
    G-----------------|
    D-555-333-555-333-|
    A-333-555-666-555-|
    E-----------------|

    e----------------------------|
    B----------------------------|
    G----------------------------|
    D----------------------555555|
    A-555555-666666-777777-222222|
    E-333333-333333-333333-xxxxxx|
 
   chorus.

E     G      C9
I'll be the switch she turns on
E        G        F
She'll be mine too
I get off
E      G      F
I'll be the fuse that she blows
E     G           C9
And even with the lights out we'll glow
E     G     C9


e------3-------5---6-5-3----------------------3-------3s5-5-3-3--------------
B--3s5---5-4-3----3-3---------------------------5\3/5----------5-5-3-3-------
G------------------------0/2\0---0---0-----2-4------------------------4-3-2--
D------------------------------4---2---2-2-----------------------------------
A----------------------------------------------------------------------------
E----------------------------------------------------------------------------



e--------------------3---3-5-3-5-7-5-7-10-7-10-12-10-12--|
B--------3---3-5-3-5---5---------------------------------|
G--4-2-4---4---------------------------------------------|
D--------------------------------------------------------|
A--------------------------------------------------------|
D--------------------------------------------------------|



e-12-12-12--15-15-14-14-12-12-10/12-12-10/12-12-10-------------15-15-14-14-12
B-------------------------------------------------12--12-12-12---------------
G----------------------------------------------------------------------------
D-------------------------------------------------------7-7-7----------------
A----------------------------------------------------------------------------
E----------------------------------------------------------------------------

                                  the 7's ^ go after the last numbers on 'e'

e-------------------------------------------------15/17-12s15p12----12-10/12
B------------------------------------15-12-15-12-15-12-15-12-15-12----------
G-----------------------------4---4-7---------------------------------------
D7-5-4-5-4---4------4-5-7-5-7---7-------------------------------------------
A----------7---7-5-7--------------------------------------------------------
E---------------------------------------------------------------------------


    back to chorus    x3

TOP cifras de Alien Ant Farm

  1. Nova Hands
  2. Stranded
  3. Attitude
  4. Death Day Acoustic
  5. Movies Live
  6. Sarah Wynn
  7. It Could Happen
  8. Orange Appeal
  9. Hope
  10. Rubber Mallet

Pela Web