Cifras Web
Alien Ant Farm

It Could Happen

Alien Ant Farm

16 acessos

Up in the Attic 

Tuning:Standard         Strmming not shown 100%


Intro if played with guitar 

e|-------------------------------------------------------------------------|
B|-------------------------------------------------------------------------|
G|-------------------------------------------------------------------------|
D|-------------------------------------------------------------------------|
A|-8-6-8-8-8-8-8-8---------------------------------------------------------|
E|-----------------7-7-7-7-7-----------------------------------------------|


Verse...string mute part to start out the song only

e|-------------------------------------------------------------------------|
B|-------------------------------------------------------------------------|
G|-x-x-x-------------------------------------------------------------------|
D|-x-x-x-------------------------------------------------------------------|
A|-x-x-x--8-6-8-8-8-8-8-8-8-6-8-8-8-8-8-8----------------------------------|
E|-------------------------------------------------------------------------|

           
--------------------Palm Mute---------


End of verse  "but it could happen here.."   strum pattern not shown

e|-------------------------------------------------------------------------|
B|-------------------------------------------------------------------------|
G|--10-10-10---------------------------------------------------------------|
D|--9--8--9----------------------------------------------------------------|
A|--8--8--8--8-8-8-6-8-----------------------------------------------------|
E|-------------------------------------------------------------------------|


Pre Chorus....strumming not show   "Might be to late..."

e|-------------------------------------------------------------------------|
B|-------------------------------------------------------------------------|
G|-------10----------------------------------------------------------------|
D|-10----9-----8---6---6/-8-6----------8-8-8/-9-8--------------------------|
A|-7-----8-----5---3---3/-5-3--repeat--x-x-x/-x-x--------------------------|
E|-8-----7-----6---4---4/-6-4----------6-6-6/-7-6--------------------------|



Chorus "Will we ever pick up..."

e|-------------------------------------------------------------------------|
B|----------------------------------------6-----4--------------------------|
G|------------------------------------5---x-----x--------------------------|
D|-10-----6----10--------3-------6-8--5---5-----5---8----8----6----5-------|
A|-10-----6----10--------3-------6-8--3---3-----3---5----8----6----5-------|
E|-8------4----8----7-6--1-------4-6----------------6----6----4----3-------|



Verse 

Chorus

End of chorus leading into bridge

e|-------------------------------------------------------------------------|
B|-------------------------------------------------------------------------|
G|-------------------7-7---------------------------------------------------|
D|-6-6-6-6-5-5-5-5---7-7---------------------------------------------------|
A|-6-6-6-6-5-5-5-5---5-5---------------------------------------------------|
E|-4-4-4-4-3-3-3-3---------------------------------------------------------|


bridge..."Dont be so..."

e|-------------------------------------------------------------------------|
B|-5-----------------------------------------------------------------------|
G|-4---------2--------5----------------------------------------------------|
D|-2-----2-4---4------5----------------------------------------------------|
A|---------------4--3-3----------------------------------------------------|
E|-------------------------------------------------------------------------|


Mini solo   

e|----7--------------------------------------------------------------------|
B|-/8---8-5-8-5---5--------------------------------------------------------|
G|--------------5---5---5----repeat----------------------------------------|
D|--------------------6---6-----------------------------7------------------|
A|--------------------------------------------------7-9---9-7--------------|
E|-------------------------------------------------------------------------|

                                                    leads into chorus
Chorus


Ending..the strange guitar part
e|-------------------------------------------------------------------------|
B|-9--9--9--9--------------9-9-9-------------------------------------------|
G|-10-10-10-10-------------------------------------------------------------|
D|-------------12-12-12-12-------------------------------------------------|
A|-------------------------------------------------------------------------|
E|-------------------------------------------------------------------------|


TOP cifras de Alien Ant Farm

  1. Nova Hands
  2. Stranded
  3. Attitude
  4. Death Day Acoustic
  5. Movies Live
  6. Sarah Wynn
  7. It Could Happen
  8. Orange Appeal
  9. Hope
  10. Rubber Mallet

Pela Web