Cifras Web
Alien Ant Farm

Lord Knows

Alien Ant Farm

11 acessos

Up In The Attic (2006 UME Records)


Tuning:Standard      Strum Patterns not shown 100% listen for timming

Intro 

e|-5----12----11-----------------------------------------------------------|
B|------------12-----------------------------------------------------------|
G|-------------------------------------------------------------------------|
D|-------------------------------------------------------------------------|
A|--------------------------2----------------------------------------------|
E|--------------------2-3-5------------------------------------------------|



Verse-strumming is not shown-only the chords needed to play
E|-------------------------------------------------------------------------|

B|-------------------------------------------------------------------------|
G|-5------5-----4--------------------10----------9-------------------------|
D|-5------4-----4--------------------10----------9-------------------------|
A|-3------3-----2--------------------8-----------7------------------3------|

E|--------------------------------------------------------2-2-2-3-5--------|

                                                          
Chorus

E|-------------------------------------------------------------------------|

B|-------------------------------------------------------------------------|
G|-------------------------------------------------------------------------|
D|-----2-------2-------2-----5-2---2---------------------------------------|
A|---3---3---3---3---3---3-------3---3-0-----------------------------------|
E|-5-------4-------5-------5-----------------------------------------------|

Chorus cont.

E|-------------------------------------------------------------------------|

B|-----5-------5------5---5---5---5---3--3--3--3---------------------------|
G|-2-5---5-1-5---5-1--7b--7b--7b--7b--5b-5b-5b-5b--------------------------|
D|-------------------------------------------------------------------------|
A|-------------------------------------------------------------------------|

E|-------------------------------------------------------------------------|


End of Chorus          Gtr 1 shown with this

e|--19-18-19--5--0/-12-11------------11----Gtr 2---------------------------|
B|---------------4/-------12-9-10-13---------------------------------------|
G|-------------------------------------------------------------------------|
D|--5---5---4-------2--1--------------1----Gtr 1---------------------------|
A|--5---4---4-------------2--4-5--3----------------------------------------|
E|--3---3---2--------------------------------------------------------------|


Verse

Chorus


Bridge   -double pick all of this and palm mute
E|-------------------------------------------------------------------------|

B|-------------------------------------------------------------------------|
G|-7-7-7-7-7-7-7-7-7-7-7-2-2-2-4-4-4-5-5-5-7-7-7---------------------------|
D|-------------------------------------------------------------------------|
A|-------------------------------------------------------------------------|

E|-------------------------------------------------------------------------|

 
Bride  cont.  "snap take a picture..."   pick pattern not shown..listen

E|-------------------------------------------------------------------------|

B|-------------------------------------------------------------------------|
G|---2-----2-----5---5---5---5--8------------------------------------------|
D|-2---2-1---1-4---4---5---5-----------------------------------------------|
A|-------------------------------------------------------------------------|

E|-------------------------------------------------------------------------|



Small Solo piece  BOTH guitar pieces shown below

E|-------------------------------------------------------------------------|

B|-10b-10br\7-5-7br-5-7-9-5\----10b-10b--12bhold and trem pick--16-18-19---|
G|--------------------------------------------------------------trem pick--|
D|-------------------------------------------------------------------------|
A|--3-3-3-3-3-3-3-3-3-3-3-3-repeat-----------------------------------------|
E|--5-5-5-4-4-4-3-3-3-2-2-2------------------------------------------------|

Chorus

Ending Chorus                                         Whamy up and release

E|-------------------------------------------------------------------------|

B|-------------------------------------------------------------------------|
G|-----------------------------------------------------5-------------------|
D|------------------2-------5-2---2--------------------5-------------------|
A|-3-3-3-3-3-3----3---3---3-----3---3-0--3-3-3-3-3-3---3-------------------|
E|-5-5-5-4-4-4--5-------5----------------5-5-5-4-4-4---3-------------------|


TOP cifras de Alien Ant Farm

  1. Stranded
  2. Death Day Acoustic
  3. Movies Live
  4. Attitude
  5. Nova Hands
  6. Sarah Wynn
  7. It Could Happen
  8. Orange Appeal
  9. Hope
  10. Rubber Mallet

Pela Web