Cifras Web
Alien Ant Farm

Movies Live

Alien Ant Farm

17 acessos

This is a good song and you should give it a go.

intro and verse

----S-------------------S----------------------------------
--8---9--9-9--x-----8--9-9-9---P---------------------------
--8---9--9-9--x-x11-8--9-9-9-7---6--6----------------------
--6---7--7-7--x-----6--7-7-7-7------7-7-7-7-7--77--7--7-7--
--0------0-0--x-----0----0-0-0------0-------------------0--



------------------------------------------------------------
------------------------------------------------------------
----P-------------------------------------------------------
--7---6-6--S------------------------------------------------
--7-----7-6-7--7-7-7-7--7--7--7--7-7------------------------
--0-----0------------------------0-0------------------------
Play this twice


Chorus

------------------------------------------------------------
------------------------------------------------------------
--9-9--9-9--9-9-9-9--9999---9-----13-----11----11-----9-----
--8-9--9-9--8-9-9-9--6666---9x16-----x6-----x4----x11-------
--6-7--7-7--6-7-7-7--7777---7-----11-----9-----9------7-----
--0----0-0--0---0-0---------------0------0------------------
Play this twice

There you go another brill tab from leg89uk

TOP cifras de Alien Ant Farm

  1. Stranded
  2. Death Day Acoustic
  3. Movies Live
  4. Attitude
  5. Nova Hands
  6. Sarah Wynn
  7. It Could Happen
  8. Orange Appeal
  9. Hope
  10. Rubber Mallet

Pela Web