Cifras Web
Alien Ant Farm

Rubber Mallet

Alien Ant Farm

15 acessos

Tunning: Standard

Strumming not shown 

Verse.....not sure about the scale piece leading into verse

e|-------------------------------------------------------------------------|
B|-------------------------------------------------------------------------|
G|---0---0-0-----0---------------------------------------------------------|
D|---4---4-4-----4---------------------------------------------------------|
A|--------------------------------4h2--------------------------------------|
E|-2---2-----2-2----------------------4h2p0--------------------------------|



Verse  all palm muted

e|-------------------------------------------------------------------------|
B|-------------------------------------------------------------------------|
G|-------------------------------------------------------------------------|
D|-4-7-4-7-7-4-4-6-4-7-6-7-6-7-6-5-5-6-5-6---------------------------------|
A|-4-5-4-5-5-4-4-4-4-5-6-5-6-5-6-5-5-4-5-4---------------------------------|
E|-2-5-2-5-5-2-2-4-2-5-4-5-4-5-4-3-3-4-3-4---------------------------------|


Chorus

e|-------------------------------------------------------------------------|
B|-------------------------------------------------------------------------|
G|----------------------2-2-2-2-----------------------------2-2-2-2--------|
D|-4-4-8-8-4------------2-2-2-2--7-9-9--8-4-8-8-4-----------2-2-2-2-7-9-9--|
A|-4-4-8-8-4--4h2-------0-0-0-0--x-x-x--8-4-8-8-4-4h2-------0-0-0-0-x-x-x--|
E|-2-2-6-6-2------4h2p0----------5-7-7--6-2-6-6-2-----4h2p0---------5-7-7--|



Bridge....right before it he palm mutes a chord..idk what
e|-3-----2----1---5--------------------------------------------------------|
B|-3-----2----1---5--------------------------------------------------------|
G|-4-----3----2---6--------------------------------------------------------|
D|-5-----4----3---7--------------------------------------------------------|
A|-5-----4----3---7--------------------------------------------------------|
E|-3-----2----1---5--------------------------------------------------------|



TOP cifras de Alien Ant Farm

  1. Nova Hands
  2. Stranded
  3. Attitude
  4. Death Day Acoustic
  5. Movies Live
  6. Sarah Wynn
  7. It Could Happen
  8. Orange Appeal
  9. Hope
  10. Rubber Mallet

Pela Web