Cifras Web
Alien Ant Farm

San Sebastian

Alien Ant Farm

11 acessos

Intro:

e|-----------------------------------|
B|-----------------------------------|
G|-----------------------------------|
D|--2-2-2-----4-4---2---2---2---2----|
A|--------4-4-----0---0---0---0---0--|
E|-----------------------------------|x2



Verso 1:

e|-----------------------------------|
B|-----------------------------------|
G|-----------------------------------|
D|--2-2-2-----4-4---2---2---2---2----|
A|--------4-4-----0---0---0---0---0--|
E|-----------------------------------|x12



e|-----------------------------------|
B|-----------------------------------|
G|-----------------------------------|
D|--2---------------4----------------|
A|-----------------------------------|
E|-----------------------------------|



Refrão:

e|-----------------------------------|  \
B|-----------------------------------|  |
G|--4-4-4-----6-6--------------------|  |
D|--2-2-2-6-6-4-4---2---2---2---2----|  |
A|--------4-4-----0---0---0---0---0--|  |
E|-----------------------------------|x2|

                                        |
e|-----------------------------------|  |
B|------------------7---7---7---7----|  |
G|--4-4-4-----6-6--------------------|  | x2
D|--2-2-2-6-6-4-4-----7---7---7------|  | 
A|--------4-4-----0------------------|  |
E|-----------------------------------|  |
                                        |

e|-----------------------------------|  |
B|-----------------------------------|  |
G|--4-4-4-----6-6--------------------|  |
D|--2-2-2-6-6-4-4---2---2---2---2----|  |
A|--------4-4-----0---0---0---0---0--|  |
E|-----------------------------------|  /



e|-----------------------------------|
B|-----------------------------------|
G|--6-6-6-6-6-6-6-6-9-9-9-9-9-9-9-9--|
D|--4-4-4-4-4-4-4-4-7-7-7-7-7-7-7-7--|
A|--4-4-4-4-4-4-4-4-7-7-7-7-7-7-7-7--|
E|-----------------------------------|



e|-----------------------------------|
B|--------------------------7--------|
G|--6-6-6-6-6-6-6-6-9--6--9----9--6--|
D|--4-4-4-4-4-4-4-4------------------|
A|--4-4-4-4-4-4-4-4------------------|
E|-----------------------------------|


Guitarra 1
e|-----------------------------------|  
B|-----------------------------------|
G|-----------------------------------|
D|--2-2-2-----4-4---2---2---2---2----|
A|--------4-4-----0---0---0---0---0--|
E|-----------------------------------|x4

Guitarra 2
e|-----|--------------|----------|-----|  
B|--5--|--5--4--2-----|----------|-----|
G|-----|-----------4--|----------|-----|
D|-----|--------------|--6----4--|--6--|
A|-----|--------------|----------|-----|
E|-----|--------------|----------|-----|x2


Verso 2:

e|-----------------------------------|
B|-----------------------------------|
G|-----------------------------------|
D|--2-2-2-----4-4---2---2---2---2----|
A|--------4-4-----0---0---0---0---0--|
E|-----------------------------------|x4



Refrão:

e|-----------------------------------|  \
B|-----------------------------------|  |
G|--4-4-4-----6-6--------------------|  |
D|--2-2-2-6-6-4-4---2---2---2---2----|  |
A|--------4-4-----0---0---0---0---0--|  |
E|-----------------------------------|x2|

                                        |
e|-----------------------------------|  |
B|------------------7---7---7---7----|  |
G|--4-4-4-----6-6--------------------|  | x2
D|--2-2-2-6-6-4-4-----7---7---7------|  | 
A|--------4-4-----0------------------|  |
E|-----------------------------------|  |
                                        |

e|-----------------------------------|  |
B|-----------------------------------|  |
G|--4-4-4-----6-6--------------------|  |
D|--2-2-2-6-6-4-4---2---2---2---2----|  |
A|--------4-4-----0---0---0---0---0--|  |
E|-----------------------------------|  /



e|-----------------------------------|
B|-----------------------------------|
G|--6-6-6-6-6-6-6-6-9-9-9-9-9-9-9-9--|
D|--4-4-4-4-4-4-4-4-7-7-7-7-7-7-7-7--|
A|--4-4-4-4-4-4-4-4-7-7-7-7-7-7-7-7--|
E|-----------------------------------|x3


e|----------------------------------------------------------|
B|----------------------------7-----------------------7-----|
G|--6-6-6-6-6-6-6-6--9--6--9-----9--6--9--6--9--4--6-----9--|
D|--4-4-4-4-4-4-4-4-----------------------------------------|
A|--4-4-4-4-4-4-4-4-----------------------------------------|
E|----------------------------------------------------------|

TOP cifras de Alien Ant Farm

  1. Nova Hands
  2. Stranded
  3. Attitude
  4. Death Day Acoustic
  5. Movies Live
  6. Sarah Wynn
  7. It Could Happen
  8. Orange Appeal
  9. Hope
  10. Rubber Mallet

Pela Web