Cifras Web
Alien Ant Farm

Shes Only Evil Intro

Alien Ant Farm

9 acessos

She's Only Evil


Tuning:Standard

Gtr 1 acoustic

Figure 1


e|-------------------------------------------7-7----------|
B|----7---5---------------------7--5---------7-7----------|
G|----0---0-- 7-----------------0--0--7------7-7----------|
D|----0---0---0---7------------ 0--0--0--7---9-9----------|
A|----x---x---x---x---7-7-------x--x--x--x----------------|
E|----7---7---7---7---7-7-------7--7--7--7----------------|


Gtr2 little riff....for the intro..the rest of them are pretty much the same with variation

e|---2---5-5-3-2-2h3p2-----------------------------------------------------|
B|-----3---------------3-----2h3p2-----------------------------------------|
G|-4---------------------2-4-------4---------------------------------------|
D|-----------------------------------4-------------------------------------|
A|-------------------------------------------------------------------------|
E|-------------------------------------------------------------------------|


Figure 2

e|-------------------------------------------------------|
B|-------------------------------------------------------|
G|-------------------------------------------------------|
D|---------------------------------9-9--9--9-------------|
A|---9---9---9---9---10--10--10----9-9--9--9-------------|
E|--10--10--10--10----9---9---9----7-7--7--7-------------|



Figure 3


"Mistakes"..........Feel" -strum

e|--3----------------------------------------------------|
B|--4-----------------2----------------------------------|
G|--3-----------------0----------------------------------|
D|--3-----------------0----------------------------------|
A|--2-----------------x----------------------------------|
E|--------------------2----------------------------------|



Figure 4

"You dug up" "know it won't last" -strum

e|---------------------------------------------------------|
B|--0------------------------------------------------------|
G|--0----------------4--6--7--9----------------------------|
D|--2----------------x--x--x--x----------------------------|
A|--2----------------2--4--5--7----------------------------|
E|--0------------------------------------------------------|




BRIGDE
   My     Temple   Try   Be      Ill Promise          You   

e|-------------------------------------------------------------------------|
B|--7-----7h8-7-----5----7-------------------------------------------------|
G|--0-----0-0-0-----0----0---7-6--2--4--------6--------2--4------6---------|
D|--0-----0-0-0-----0----0---0-0--x--x--------x--------x--x------x---------|
A|--x-----0-x-x-----x----x---x-x--x--x--------x--------x--x------x---------|
E|--7-----7-7-7-----7----7---7-7--2--3--------5--------2--3------5---------|





e|-------------------------------------------------------------------------|
B|-------------------------------------2h3-2-------------------------------|
G|-----2-------2-----1-------1-----0---------------------------------------|
D|---0---0---0-----0---0---0-----0-----------------------------------------|
A|-------------------------------------------------------------------------|
E|-2-------2-----1-------1-----0-------------------------------------------|

TOP cifras de Alien Ant Farm

  1. Stranded
  2. Death Day Acoustic
  3. Movies Live
  4. Attitude
  5. Nova Hands
  6. Sarah Wynn
  7. It Could Happen
  8. Orange Appeal
  9. Hope
  10. Rubber Mallet

Pela Web