Cifras Web
Alien Ant Farm

Smooth Criminal 0

Alien Ant Farm

9 acessos

Intro:

-|--------------------------------------------------|
-|--------------------------------------------------|
-|--------------------------------------------------|
-|-7---7-7-7-7--9-9-9-9--10-10-10-10--9-9-9-9--5--7-| (x1)
-|-7---7-7-7-7--9-9-9-9--10-10-10-10--9-9-9-9--5--7-|
-|-7---7-7-7-7--9-9-9-9--10-10-10-10--9-9-9-9--5--7-|

.........Palm............Mute............... 

-|----------------------------------------------|
-|----------------------------------------------|
-|----------------------------------------------|
-|-7-7-7-7--9-9-9-9--10-10-10-10--9-9-9-9--5--7-| (x3) 
-|-7-7-7-7--9-9-9-9--10-10-10-10--9-9-9-9--5--7-|
-|-7-7-7-7--9-9-9-9--10-10-10-10--9-9-9-9--5--7-|
.........Palm............Mute...............

Verse: 
-|----------------------------------------------|
-|----------------------------------------------|
-|----------------------------------------------|
-|-7-7-7-7--9-9-9-9--10-10-10-10--9-9-9-9--5--7-| (x3) 
-|-7-7-7-7--9-9-9-9--10-10-10-10--9-9-9-9--5--7-|
-|-7-7-7-7--9-9-9-9--10-10-10-10--9-9-9-9--5--7-|
.........Palm............Mute...............


-|-------------------------------------------|
-|-------------------------------------------|
-|-------------------------------------------|
-|-7-7-7-7--9-9-9-9--10-10-10-10--9-9-9-9--5-| (x1)
-|-7-7-7-7--9-9-9-9--10-10-10-10--9-9-9-9--5-|
-|-7-7-7-7--9-9-9-9--10-10-10-10--9-9-9-9--5-|

.........Palm............Mute............

Prechorus:

-|-----------------|--------------------|
-|-----------------|--------------------|
-|-----------------|--------------------|
-|-3---------5-5-x-|-3----2--5--3--5--7-|
-|-3---------5-5-x-|-3----2--5--3--5--7-|
-|-3---------5-5-x-|-3----2--5--3--5--7-|

(x3) then 


Chorus:

-|------------------------------------------------------------|
-|------------------------------------------------------------|
-|------------------------------------------------------------|
-|-7-7--5-5--3-3-3--5--3--5--7---7-7--5-5--3-3--2-2--5-5--7-7-|
-|-7-7--5-5--3-3-3--5--3--5--7---7-7--5-5--3-3--2-2--5-5--7-7-|
-|-7-7--5-5--3-3-3--5--3--5--7---7-7--5-5--3-3--2-2--5-5--7-7-|




-|-----------------------------------------------------|
-|-----------------------------------------------------|
-|-----------------------------------------------------|
-|-7-7--5-5--3-3-3--5--3--5--7---7-7--5-5--3-3--2-2--5-|
-|-7-7--5-5--3-3-3--5--3--5--7---7-7--5-5--3-3--2-2--5-|
-|-7-7--5-5--3-3-3--5--3--5--7---7-7--5-5--3-3--2-2--5-|




-|-----------------|------------------------|
-|-----------------|------------------------|
-|-----------------|------------------------|
-|-3---------5-5-x-|-3------5--2--2-2-----2-|
-|-3---------5-5-x-|-3------5--2--2-2-----2-|
-|-3---------5-5-x-|-3------5--2--2-2-----2-|

(x2) 


Verse 2:

-|--------------------------------------------------|
-|--------------------------------------------------|
-|--------------------------------------------------|
-|-7---7-7-7-7--9-9-9-9--10-10-10-10--9-9-9-9--5--7-|
-|-7---7-7-7-7--9-9-9-9--10-10-10-10--9-9-9-9--5--7-|
-|-7---7-7-7-7--9-9-9-9--10-10-10-10--9-9-9-9--5--7-|

.........Palm............Mute............... 


-|----------------------------------------------|
-|----------------------------------------------|
-|----------------------------------------------|
-|-7-7-7-7--9-9-9-9--10-10-10-10--9-9-9-9--5--7-|
-|-7-7-7-7--9-9-9-9--10-10-10-10--9-9-9-9--5--7-|
-|-7-7-7-7--9-9-9-9--10-10-10-10--9-9-9-9--5--7-|

.........Palm............Mute...............

-|----------------------------------------------|
-|----------------------------------------------|
-|----------------------------------------------|
-|-7-7-7-7--9-9-9-9--10-10-10-10--9-9-9-9--5--7-| 
-|-7-7-7-7--9-9-9-9--10-10-10-10--9-9-9-9--5--7-|
-|-7-7-7-7--9-9-9-9--10-10-10-10--9-9-9-9--5--7-|
.........Palm............Mute...............


-|-------------------------------------------|
-|-------------------------------------------|
-|-------------------------------------------|
-|-7-7-7-7--9-9-9-9--10-10-10-10--9-9-9-9--5-|
-|-7-7-7-7--9-9-9-9--10-10-10-10--9-9-9-9--5-|
-|-7-7-7-7--9-9-9-9--10-10-10-10--9-9-9-9--5-|

.........Palm............Mute............



Prechorus 2:

-|-----------------|--------------------|
-|-----------------|--------------------|
-|-----------------|--------------------|
-|-3---------5-5-x-|-3----2--5--3--5--7-|
-|-3---------5-5-x-|-3----2--5--3--5--7-|
-|-3---------5-5-x-|-3----2--5--3--5--7-|

(x3) then 


Chorus 2:

-|------------------------------------------------------------|
-|------------------------------------------------------------|
-|------------------------------------------------------------|
-|-7-7--5-5--3-3-3--5--3--5--7---7-7--5-5--3-3--2-2--5-5--7-7-|
-|-7-7--5-5--3-3-3--5--3--5--7---7-7--5-5--3-3--2-2--5-5--7-7-|
-|-7-7--5-5--3-3-3--5--3--5--7---7-7--5-5--3-3--2-2--5-5--7-7-|




-|-----------------------------------------------------|
-|-----------------------------------------------------|
-|-----------------------------------------------------|
-|-7-7--5-5--3-3-3--5--3--5--7---7-7--5-5--3-3--2-2--5-|
-|-7-7--5-5--3-3-3--5--3--5--7---7-7--5-5--3-3--2-2--5-|
-|-7-7--5-5--3-3-3--5--3--5--7---7-7--5-5--3-3--2-2--5-|




-|------------------------|
-|------------------------|
-|------------------------|
-|-3------5--2--2-2-----2-|
-|-3------5--2--2-2-----2-|
-|-3------5--2--2-2-----2-|



Breakdown:

-|--------------------------------------------------|
-|--------------------------------------------------|
-|--------------------------------------------------|
-|-7---7-7-7-7--9-9-9-9--10-10-10-10--9-9-9-9--5--7-|
-|-7---7-7-7-7--9-9-9-9--10-10-10-10--9-9-9-9--5--7-|
-|-7---7-7-7-7--9-9-9-9--10-10-10-10--9-9-9-9--5--7-|

.........Palm............Mute...............


-|------------------------------------------------------------------------|
-|------------------------------------------------------------------------|
-|------------------------------------------------------------------------|
-|-7-7-7-7--9-9-9-9--10-10-10-10--9-9-9-9--5--2-pick slide----------------|
-|-7-7-7-7--9-9-9-9--10-10-10-10--9-9-9-9--5------------------------------|
-|-7-7-7-7--9-9-9-9--10-10-10-10--9-9-9-9--5------------------------------|

.........Palm............Mute............     Pick slide starts out slow and
then speeds up to the solo-start at the nut and end at the bridge for this
Solo: (x8)

-|-------------------------|
-|-------------------------| bass plays intro in background
-|-5-----------------------|
-|---7-5-7-5---5-7-7-7-7-7-|
-|-----------7-------------|
-|-------------------------|



Chorus 3:

-|------------------------------------------------------------|
-|------------------------------------------------------------|
-|------------------------------------------------------------|
-|-7-7--5-5--3-3-3--5--3--5--7---7-7--5-5--3-3--2-2--5-5--7-7-|
-|-7-7--5-5--3-3-3--5--3--5--7---7-7--5-5--3-3--2-2--5-5--7-7-|
-|-7-7--5-5--3-3-3--5--3--5--7---7-7--5-5--3-3--2-2--5-5--7-7-|




-|--------------------------------------------------------|
-|--------------------------------------------------------|
-|--------------------------------------------------------|
-|-7-7--5-5--3-3-3--5--3--5--7---7-7--5-5--3-3--2-2--5--7-|
-|-7-7--5-5--3-3-3--5--3--5--7---7-7--5-5--3-3--2-2--5--7-|
-|-7-7--5-5--3-3-3--5--3--5--7---7-7--5-5--3-3--2-2--5--7-|



-|---------------|
-|---------------|
-|-3//4//5//7//9-|
-|---------------| (x2)These two parts are played in the background
-|-1//2//3//5//7-|
-|---------------|

                   Listen on the CD- He might be picksliding but i use this
-|-----------------------|
-|-----------------------|
-|-3//4//5//7//9//11//13-|
-|-----------------------| (x2)
-|-1//2//3//5//7///9//11-|
-|-----------------------| 


Outro:
-|----------------------------------------------|
-|----------------------------------------------|
-|----------------------------------------------|
-|-7-7-7-7--9-9-9-9--10-10-10-10--9-9-9-9--5--7-| (x3) 
-|-7-7-7-7--9-9-9-9--10-10-10-10--9-9-9-9--5--7-|
-|-7-7-7-7--9-9-9-9--10-10-10-10--9-9-9-9--5--7-|
.........Palm............Mute...............


-|-------------------------------------------|
-|-------------------------------------------|
-|-------------------------------------------|
-|-7-7-7-7--9-9-9-9--10-10-10-10--9-9-9-9--5-| (x1)
-|-7-7-7-7--9-9-9-9--10-10-10-10--9-9-9-9--5-|
-|-7-7-7-7--9-9-9-9--10-10-10-10--9-9-9-9--5-|

.........Palm............Mute.........

TOP cifras de Alien Ant Farm

  1. Nova Hands
  2. Stranded
  3. Attitude
  4. Death Day Acoustic
  5. Movies Live
  6. Sarah Wynn
  7. It Could Happen
  8. Orange Appeal
  9. Hope
  10. Rubber Mallet

Pela Web