Cifras Web
Alien Ant Farm

Universe

Alien Ant Farm

11 acessos

Album: ANThology 
Author: Rico (*) 


Hey, I'm only 15 and this is the first tab i've put out. I think 
it's pretty accurate, so try it, and if it's not, get off my back! 
this isn't my job, man! 

Intro/Verse 
e|------------------------------------ 
B|------------------------------------ 
G|------------------------------------ 
D|---------------------------66666666- 
A|-333333333-222222222222222-00000000- 
E|-555555555-444444444444444-00000000- 
      we should have waited... 


Intro 2/Chorus 
e|-------------------------------- 
B|-------------------------------- 
G|----/9-4------------------------ 
D|-3--/9-4-5-3-2222222-4-66666767- 
A|-3--/7-2-5-3-2222222-4-66666767- 
E|-1-------3-1-0000000-2-44444545- 
      we love to break the season 


Bridge to Chorus  
(yes, the first power chord is broken up a bit 
listen carefully to hear the rhythm and place ment of the chords and notes.) 
e|----------------------------------------- 
B|----------------------------------------- 
G|----------------------------------------- 
D|---3-----33---3-----33-2-22-222-2-22-222- 
A|-3---3-3----3---3-3----2-22-222-2-22-222- 
E|-1---1-1----1---1-1----0-00-000-4-44-444- 
    Waiting? I Know... 


Interlude/Breakdown 
e|----------------------------------- 
B|----------------------------------- 
G|----------------------------------- 
D|-33333333-55555555-7--7-9-11-9-7-5- 
A|-33333333-55555555-7--7-9-11-9-7-5- 
E|-11111111-33333333-5--5-7- 9-7-5-3- 
    See! And we don't mind...Are you ashamed...etc. 


Solo 
e|------------------------------ 
B|------------------------------ 
G|-10---9-7----6-9-------------- 
D|--------------------9-10-9-10- 
A|------------------------------ 
E|------------------------------ 
   ==   = =    = = ( = means tremolo pick) 

TOP cifras de Alien Ant Farm

  1. Stranded
  2. Death Day Acoustic
  3. Movies Live
  4. Attitude
  5. Nova Hands
  6. Sarah Wynn
  7. It Could Happen
  8. Orange Appeal
  9. Hope
  10. Rubber Mallet

Pela Web