Cifras Web
Alienados do Sertão

Borboletas

Alienados do Sertão

10 acessos

(capo 2ª casa)

(intro) Bm  D  Bm  A  D  Bm  G  A  Bm


E|------------------------------5-----------
B|---------2h3p2----------2h3p2-----3h5-3-3-
G|-------4-------4-------2------------------
D|----2h4------------2h4--------------------
A|------------------------------------------
E|------------------------------------------



E|---------------------------------
B|---------------------------------
G|--2-4-4-2--4-2---4-4-2---4-4-2---
D|-4-------4-----4-------4------4--
A|---------------------------------
E|---------------------------------



E|--------------------------------
B|--------------------------------
G|-2-2----2-----2-2----2-2--------
D|----4-2---4-2----4-2-----4-4----
A|--------------------------------
E|--------------------------------



E|--------------------------------
B|-3-3-2---3-2---3-3-2---2-3-2----
G|-------4-----4-------4-------4--
D|--------------------------------
A|--------------------------------
E|--------------------------------



E|-------------
B|-------------
G|-4--4-2-4-2--
D|-4--4-2-4-2--
A|-------------
E|-------------



E|---3-3-3----0-0-0------------
B|---3-3-3----2-2-2---2-3-2----
G|---0-0-0----2-2-2---4-4-4----
D|---2--------2----------------
A|---2------0-------2----------
E|-3---------------------------


   Bm                       D
Percebo que o tempo já não passa
                       A     Bm
Você diz que não tem graça amar assim
     Bm                     D
Foi tudo tão bonito  mas voou pro infinito
     A             Bm
Parecido com borboletas de um jardim

(tabs & dicas)

E|-------------
B|-------------
G|---6h7p6---4-
D|-7-------7---
A|-------------
E|-------------


Em          G
Agora você volta
     D                         A
E balança o que eu sentia por outro alguém
Em                   G
Dividido entre dois mundos
                A                       Bm
Sei que estou amando mas ainda não sei quem...
           G           D
Não sei dizer o que mudou
     A           Bm
Mas nada está igual
      G                D           A            Bm
Numa noite estranha a gente se estranha e fica mal
   G           D       A             Bm
Você tenta provar que tudo em nós morreu
      G            D
Borboletas sempre voltam
     A             Bm
E o seu jardim sou eu.

(solo base) Bm  D  A  F#  G  A  Bm

(solo)

E|-14-14-14--15-15-15--14-14-14-14-14-14--15-15-14-14--
B|-15-15-15--15-15-15--15-15-15-15-15-15--15-15-15-15--
G|-----------------------------------------------------
D|-----------------------------------------------------
A|-----------------------------------------------------
E|-----------------------------------------------------



E|-14-14-14--15-15-15--14-14-14-14-14-14--15-15-14-14--
B|-15-15-15--15-15-15--15-15-15-15-15-15--15-15-15-15--
G|-----------------------------------------------------
D|-----------------------------------------------------
A|-----------------------------------------------------
E|-----------------------------------------------------



E|-14-14-14--15-15-15--14-14-14-14-14-14-12--12-12-12-9---9--9--
B|-15-15-15--15-15-15--15-15-15-15-15-15-14--14-14-14-10--10-10-
G|--------------------------------------------------------------
D|--------------------------------------------------------------
A|--------------------------------------------------------------
E|--------------------------------------------------------------



E|-------------
B|-------------
G|-4--4-2-4-2--
D|-4--4-2-4-2--
A|-------------
E|-------------



E|---3-3-3----0-0-0------------
B|---3-3-3----2-2-2---2-3-2----
G|---0-0-0----2-2-2---4-4-4----
D|---2--------2----------------
A|---2------0-------2----------
E|-3---------------------------


   Bm                       D
Percebo que o tempo já não passa
                       A     Bm
Você diz que não tem graça amar assim
     Bm                     D
Foi tudo tão bonito  mas voou pro infinito
     A             Bm
Parecido com borboletas de um jardim

(tabs & dicas)

E|-------------
B|-------------
G|---6h7p6---4-
D|-7-------7---
A|-------------
E|-------------


Em          G
Agora você volta
     D                         A
E balança o que eu sentia por outro alguém
Em                   G
Dividido entre dois mundos
                A                       Bm
Sei que estou amando mas ainda não sei quem...
           G           D
Não sei dizer o que mudou
     A           Bm
Mas nada está igual
      G                D           A            Bm
Numa noite estranha a gente se estranha e fica mal
   G           D       A             Bm
Você tenta provar que tudo em nós morreu
      G            D
Borboletas sempre voltam
     A             Bm
E o seu jardim sou eu.

TOP cifras de Alienados do Sertão

  1. Menina Veneno
  2. Saudades da Minha Terra
  3. Fio de Cabelo
  4. Tem Que Ser Você
  5. Coração de Luto
  6. O Homem
  7. Querência Amada
  8. Saudade Bandida
  9. Sinônimos
  10. Sinto Falta de Você

Pela Web