Cifras Web
Alienados do Sertão

Coração Espinhado

Alienados do Sertão

9 acessos

(intro) Bm F#

/ slide
h hammer-on
~ vibrato
b bend
r realise

(guitarra solo)

E|-----------------------------------------------------------------
B|-----------------------------------------------------------------
G|------------------------15-16-15~--------------------------------
D|---8-9-11-9-8-11-9~/---16---------16-14-12-14br14b-14-12-14-14~--
A|-----------------------------------------------------------------
E|-----------------------------------------------------------------



E|-----------------------14-18-19-18~-14---------14---14---14---14-
B|-11-12-14-12-11-14-12~----------------17-15-17b--17b--17b--17b---
G|-----------------------------------------------------------------
D|-----------------------------------------------------------------
A|-----------------------------------------------------------------
E|-----------------------------------------------------------------



E|----14-------------------------------
B|-17b--17-15-17-17-15-14-12h14-12~/5--
G|-------------------------------------
D|-------------------------------------
A|-------------------------------------
E|-------------------------------------


Bm	           F#7
Essa mulher tá me matando,
Bm		 F#7
Me acertou o coração,
Bm			    F#7
Por mais que eu queira esquece-la
Bm	         F#7
Minh'alma diz que não

Bm		F#7
Meu coração machucado
Bm		 F#7
Infeliz e abandonado
Bm		        F#7
Não sei porque, me obriga, me trata assim
Bm		      F#7
Por favor, alguém me tira essa dor.

Bm G F#7           Bm
ahhhhh, coração espinhado
             F#7
Como dói esse medo de amar	(refrão)
Bm G F#7		  Bm  F#7
ahhhhh, como me dói esse amor

Bm	               F#7
Como me dói, como me dói o coração
Bm		    F#7
Quando sozinho ficamos
Bm			    F#7
Mas não se esqueça mulher que algum dia dirá
  Bm	         F#7
Ai ai ai, como me dói esse amor.

(refrão)
(solo)

Em		  Bm
Como dói ser esquecido
Em	 Bm
Como dói o coração
D		     A
Como dói se sentir vivo
Em		  Bm
Sem você comigo amor

Bm   G      F#7
Coração espinhado
Bm   G       F#7
Coração machucado
Bm   G       F#7
Coração apaixonado
Bm
Coração espinhado

(solo)
Bm	   F#7
Coração espinhado
Bm	   F#7
Coração espinhado
Bm 	   F#7
Coração espinhado
Bm	   F#7
Coração espinhado

TOP cifras de Alienados do Sertão

  1. Menina Veneno
  2. Saudades da Minha Terra
  3. Fio de Cabelo
  4. Tem Que Ser Você
  5. Coração de Luto
  6. O Homem
  7. Querência Amada
  8. Saudade Bandida
  9. Sinônimos
  10. Sinto Falta de Você

Pela Web