Cifras Web
Alienados do Sertão

Fotos

Alienados do Sertão

6 acessos

(intro 2x) C G Am F

(violâo 1)

E|------------15----------------10---------------5------------1--------|
B|------------------------------------------5-------------1------------|
G|-------12----------------7--------------5---5--------2----2----------|
D|----14---14-----------9----9---------7-------------3-----------------|
A|-15---------------10-------------------------------------------------|
E|---------------------------------------------------------------------|


(violão 2)

E|-------------------------------------------------------------------------------------------------|
B|-------------------------------------------------------------------------------------------------|
G|-------------------------------------------------------------------------------------------------|
D|-14-14-14-14-14-14-14-14-14-14/12-12-12-12-12-12-12-12-12/10-10-10-10-10-10-10-10-10/7-7-7-7-7-7-|
A|-------------------------------------------------------------------------------------------------|
E|-------------------------------------------------------------------------------------------------|


(dedilhado durante a música):

(violão 1)

E|-----15-----------------10--------------5-------------1------------------|
B|------------------------------------------5------------------------------|
G|---------12----(40---------7-----(4x)--------5-(4x)-----3-------(4x)-----|
D|------------14---------------9--------7-------------3-------3------------|
A|--15----------------10---------------------------------------------------|
E|-------------------------------------------------------------------------|


(violão 2 - continua com o mesmo solo)

C                         G
Joguei fora fotos de nós dois
                         Am
Reviver você não me faz bem
                            F
Nem vai me trazer o que já foi
                          C
Você mudou muito e eu também
                          G
Finjo que o tempo não passou
                             Am
Busco em outros olhos ver você
                           F
Fotos do que foi o nosso amor
                              C
Não revelam outra pessoa pra ser

(violão 2)

E|-15--15--15--|
B|-15--15--15--|


(refrão)
C               G
Uma vida pra tirar você da minha
Am                  F               C
Só seus flashes disparam o meu coração
                     G
Já rasguei as fotos mas em pensamento
Dm                    F           C
Guardo cópias do seu beijo e solidão

(solo base) C G Am F
    7x                          3x       3x       4x  4x  5x

E|----------10-10----------------8--7-5--13--12-8--8--10--12----0---1-----|
B|--8-------12-12---8----8-10---10--8-6--13--13-8--8--12--13----1---1-----|
G|--9---------------9----9--9-----------------------------------2---2-----|
D|--------------------------------------------------------------2---2-----|
A|--------------------------------------------------------------0---3-----|
E|------------------------------------------------------------------1-----|


(repete refrão)
(repete tudo)

(solo feito durante o refrão - violão 2)

    C                G                Am             F
E|-------------15---------------15------------12--------------13-|
B|-------13---------------15---------------13-------------13-----|
G|-12-12----12------16-16----16------14-14---14-----14-14---14---|
D|---------------------------------------------------------------|
A|---------------------------------------------------------------|
E|---------------------------------------------------------------|


    C                G                Dm             F
E|-------------15---------------15------------13--------------13-|
B|-------13---------------15---------------15-------------13-----|
G|-12-12----12------16-16----16------14-14---14-----14-14---14---|
D|---------------------------------------------------------------|
A|---------------------------------------------------------------|
E|---------------------------------------------------------------|

TOP cifras de Alienados do Sertão

  1. Menina Veneno
  2. Saudades da Minha Terra
  3. Fio de Cabelo
  4. Tem Que Ser Você
  5. Coração de Luto
  6. O Homem
  7. Querência Amada
  8. Saudade Bandida
  9. Sinônimos
  10. Sinto Falta de Você

Pela Web