Cifras Web
Alkaline Trio

Bloodied Up

Alkaline Trio

9 acessos

By Haj

Intro 
e|----------------------------------------------------| 
B|----------------------------------------------------| 
G|----------------------------------------2-----------| 
D|---9999--11-11-11-11----7-x-6-x-7-x-6-x-2-----------| 
A|---0000--0--0--0--0-----4-x-4-x-5-x-5-x-0-----------| 
E|---0000--0--0--0--0-----0-x-0-x-0-x-0-x-0-----------| 

Verse 
e|-------------------------------------------------| 
B|-------------------------------------------------| 
G|-------------6---------7-------------------------| 
D|---7---------6---------7-------------------------| 
A|---7---------4---------5-------------------------| 
E|---5---------------------------------------------| 
~~~~~~~~~P.M~~~~~~~~~~~P.M~~~~~~~~~~~P.M~~~~~~~~~~~ 
Listen for strumming....... 

Chorus 
e|--------------------------------------------------| 
B|--------------------------------------------------| 
G|---------------------------------7---------9------| 
D|----7---------4---------2--------7---------9------| 
A|----7---------4---------2--------5---------7------| 
E|----5---------2---------0-------------------------| 
Listen for strumming...... (same as fast part) 

Ending bridge 
e|----------------------------------------------------| 
B|----------------------------------------------------| 
G|---9-------7---------6----|-----4----6-----4-----7--| 
D|---x-------x---------x----|-----x----x-----x-----x--| 
A|---7-------5---------4----|-----2----4-----2-----5--| 
E|----------------------------------------------------| 
Listen for strumming....... 

Ending 
e|-------------------------------------------------------| 
B|-------------------------------------------------------| 
G|---14--------11---9----13----14----7---9---7-----------| 
D|---xx---11---x----x----xx----xx----x---x---x---7----7--| 
A|---12---x----9----7----11----12----5---7---5---7----7--| 
E|--------9--------------------------------------5----5--| 
Listen for strumming......

TOP cifras de Alkaline Trio

  1. Sorry About That
  2. Radio
  3. Sadie
  4. Clavicle
  5. Time To Waste
  6. Hell Yes
  7. My Little Needle
  8. Fuck You Aurora
  9. Burn
  10. This Could Be Love

Pela Web