Cifras Web
Alkaline Trio

Buried

Alkaline Trio

11 acessos

Mercy Me single
Tabbed by: IanK
*
Drop D Tuning

Great song, Only trio song in Drop D. Enjoy.

Intro / 1st Verse

e|-----------------------------------------|--------------|
B|-----------------------------------------|--------------|
G|-----------------------------------------|--------------|
D|---0---2-0---0---4--------------Repeat---|-77777777/5---|
A|-----0-----0----------7--5---7-----------|-77777777/5---|
D|-0-------------5---5-------5-------------|-77777777/5---|



Before Distorted guitar & drums come in

e|---------------------------------|
B|---------------------------------|
G|---------------------------------|
D|---0---2-0---0---Repeat----------|
A|-----0-----0---------------------|
D|-0-------------------------------|



Chords used in verses and chorus
Just listen for the order and whatnot, its easy.
e|---------------------------------|
B|---------------------------------|
G|--7------------------------------|
D|--7--5--7------------------------|
A|--5--5--7------------------------|
D|--0--5--7------------------------|

TOP cifras de Alkaline Trio

  1. Sorry About That
  2. Radio
  3. Sadie
  4. Clavicle
  5. Time To Waste
  6. Hell Yes
  7. My Little Needle
  8. Fuck You Aurora
  9. This Could Be Love
  10. Another Innocent Girl

Pela Web