Cifras Web
Alkaline Trio

Fine Without You

Alkaline Trio

9 acessos

Tabbed by: Tom Fleming
Tuning: Standard

and it is off their split cd with One Man Army.

~=let ring

I'm pretty sure this is how the intro starts out.
(Those are 11's and 12's, not 1's and 2's)
Intro

|--------------------------------------------------------------------------|
|--------------------------------------------------------------------------|
|----------------------------------------------976-------------------------|
|1111111212121111111212127799111111121212777999000-111111121212111111121212|
|0-0-0-0-0-0-0-0-0-0-0-0-00009-9-9-9-9-9-000000----0-0-0-0-0-0-0-0-0-0-0-0-|
|--------------------------------------------------------------------------|
Intro (con.)                     This part is played behind the intro.


|------------------------------|  |-------------------------------------|
|------------------------------|  |-------------------------------------|
|------------------------------|  |---------7-----------------7---------|
|779911111112121277799911111111|  |7--------x-(16x)--7--------x-(16x)---|
|00009-9-9-9-9-9-0000000-0-0-0-|  |7-(16x)--5--------7-(16x)--5---------|
|------------------------------|  |5-----------------5------------------|


Verse

|------------------------------------------------------------------------|
|------------------------------------------------------------------------|
|----------------7~------------------------------7~----------------------|
|7~--------------x~--------------7~--------------x~--------------7~------|
|7~--------------5~--------------7~--------------5~--------------7~------|
|5~------------------------------5~------------------------------5~------|

Verse (con.)

|------------------------------------------------------------------------|
|--------------------------------------------------------At the end of---|
|7~--------------7~------9~--------------7~--------------the verse,------|
|x~------7~------x~------9~--------------7~--------------do a pick slide.|
|5~------7~------5~------7~--------------5~------------------------------|
|--------5~--------------------------------------------------------------|


Intro

Verse

Chorus:
The chorus is the same as the intro with this after it:

|---------------------------------|
|---------------------------------|
|99999999999999997777777777777777-|
|99999999999999997777777777777777-|
|77777777777777775555555555555555-|
|---------------------------------|


Intro

Verse

Chorus (2x)

Do this part of the chorus 2 times at the end:

|---------------------------------|
|---------------------------------|
|99999999999999997777777777777777-|
|99999999999999997777777777777777-|
|77777777777777775555555555555555-|
|---------------------------------|

Then end on:

|--------------------|
|--------------------|
|2222222222222222-2~-|
|2222222222222222-2~-|
|0000000000000000-0~-|
|--------------------|


If you have any comments or questions, email me at *.

TOP cifras de Alkaline Trio

  1. Sorry About That
  2. Radio
  3. Sadie
  4. Clavicle
  5. Time To Waste
  6. Hell Yes
  7. My Little Needle
  8. Fuck You Aurora
  9. This Could Be Love
  10. Another Innocent Girl

Pela Web