Cifras Web
Alkaline Trio

Time To Waste

Alkaline Trio

18 acessos

Tabbed by: punkbass479
Tuning: Standard


INTRO:
G|-------------------------------------------------------------------|
D|---------------------------4-4-4-4-4-------------------------------|
A|---444412121212---11111111-------------555512121212---111111115555-|
E|-------------------------------------------------------------------|


VERSE: 
G|---------------------------------------------------------------|
D|-------------------------------------------------------2-------|
A|---------------------------------------------------5-------5---|
E|---2---0---2---0---2---4---5---2---0---2---4---5---------------|

CHORUS: 
G|-------------------------------|----|-------------------------------|
D|-------------------------------|----|-------------------------------|
A|----------------------5-5-5-5--|----|----------------------5-5--7-7-|
E|---5-5-5-5--2-2-2-2------------|----|---5-5-5-5--2-2-2-2------------|

INTERLUDE: 
G|------------------------------------------|
D|-------------2----------------------------|
A|---------------------9--------------------|
E|---2--------------------------2---4---0---|

CHORUS: 

G|------------------------------|----|------------------------------|
D|------------------------------|----|------------------------------|
A|---------------------5-5-5-5--|----|---------------------5-5--7-7-|
E|---5-5-5-5--2-2-2-2-----------|----|---5-5-5-5--2-2-2-2-----------|

BRIDGE: 
G|--------------------------------------------------------------------------------------------|
D|------------------------------------4-4-4-4-------------------------------------------------|
A|-----4444---444412121212---11111111----------555512121212---111111115555---666612121212-----|
E|-2------------------------------------------------------------------------------------------|

G|---------------------------------------------|
D|------------4-4-4-4------------------2-------|
A|---11111111-----------555512121212------5----|
E|---------------------------------------------|


OUTRO (4:02~4:11)
G|--------------------------------------|
D|---------------------2-2-2-2--4-4-4-4-|
A|--------------------------------------|
E|---2-2-2-2--2-2-2-2-------------------|

TOP cifras de Alkaline Trio

  1. Sorry About That
  2. Radio
  3. Sadie
  4. Clavicle
  5. Time To Waste
  6. Hell Yes
  7. My Little Needle
  8. Fuck You Aurora
  9. Burn
  10. This Could Be Love

Pela Web