Cifras Web
Alkaline Trio

Trucks And Trains

Alkaline Trio

10 acessos

Tabbed By: Chris
EMail: *


this is the major verse riff
G|-------------------------------------------------------|
D|---------4-----------4---4/5---------------------------|
A|-2-2-2-2---2---2-2-2---2-------------5-----------0-0-0-|
E|-----------------------------3-3-3-3---3--2-3-3--------|

there are a couple  variations off this, here are two examples
G|-----------------------------------------------------------|
D|---------4-----------4---4/5-------------------------------|
A|-2-2-2-2---2---2-2-2---2-------------5---5/7\--------0-0-0-|
E|-----------------------------3-3-3-3---3------2-3-3--------|
   (this variation is used very often)

G|-----------------------------------------------------------|
D|---------4---4-----------4---4/5---------------------------|
A|-2-2-2-2---2---2-2-2-2-2---2-------------5-----------0-0-0-|
E|---------------------------------3-3-3-3---3--2-3-3--------|
   (this variation is less common but still something keep your ears open for)

also there are cases where both variations are used in the same riff, like so.
G|---------------------------------------------------------------|
D|---------4---4-----------4---4/5-------------------------------|
A|-2-2-2-2---2---2-2-2-2-2---2-------------5---5/7\--------0-0-0-|
E|---------------------------------3-3-3-3---3------2-3-3--------|

when going into the chorus, only play the first half of the riff and then do this
G|---------------------------------|
D|---------------------------------|
A|---------------------------------|
E|-3-3-3-3-3-3-3-3-5-5-5-5-5-5-5-5-|

CHORUS
G|-----------------------------------------------------------------|
D|-----------------------------------------------------------------|
A|-5-5-5-5-5-5-5-5-5-5-5-5-----------------------------------------|x3
E|-------------------------5-5-5-5-3-3-3-3-3-3-3-3-3-3-3-3-3-3-3-3-|

G|-----------------------------------------------------------------|
D|-----------------------------------------------------------------|
A|-----------------------------------------------------------------|
E|-5-5-5-5-5-5-5-5-5-5-5-5-5-5-5-5-3-3-3-3-3-3-3-3-5-5-5-5-5-5-5-5-|

BRIDGE
G|-----------------------------------------------------------------|
D|-----------------------------------------------------------------|
A|-2-2-2-2-2-2-2-2-0-0-0-0-0-0-0-0---------------------------5-5-5-|x3
E|---------------------------------3-3-3-3-3-3-3-3-2-2-2-2-2-------|

G|-----------------------------------------------------------------|
D|-----------------------------------------------------------------|
A|-2-2-2-2-2-2-2-2-0-0-0-0-0-0-0-0---------------------------------|
E|---------------------------------3-3-3-3-3-3-3-3-5-5-5-5-5-5-5-5-|

end on D

TOP cifras de Alkaline Trio

  1. Sorry About That
  2. Radio
  3. Sadie
  4. Clavicle
  5. Time To Waste
  6. Hell Yes
  7. My Little Needle
  8. Fuck You Aurora
  9. This Could Be Love
  10. Another Innocent Girl

Pela Web