Cifras Web
Alkaline Trio

Youve Got So Far To Go

Alkaline Trio

9 acessos

Tabbed By: Chris
EMail: *


-----7-7-----7-7-----7-7-----7-7-----7-7-----7-7-----7-7-----7-7--------------
-0-0-----0-0-----4-4-----4-4-----5-5-----5-5-----5-5-----5-5------------------
------------------------------------------------------------------------------
                                                                              


------------------------------------------------------------------------------
------------------------------------------------------------------------------
-9-9-9-9-9-9-9-9-9-9-9-9-9-9-9-9-7-7-7-7-7-7-7-7-7-7-7-7-7-7-7-7--------------
------------------------------------------------------------------------------
                 Let's   walk    home.....                                    


------------------------------------------------------------------------------
------------------------------------------------------------------------------
-5-5-5-5-5-5-5-5-5-5-5-5-5-5-5-5-5-5-5-5-5-5-5-5-5-5-5-5-5-5-5-5--------------
------------------------------------------------------------------------------
 streetlight....                                                              


------------------------------------------------------------------------------
------------------------------------------------------------------------------
-0-0-0-0-0-0-0-0-0-0-0-0-0-0-0-0-4-4-4-4-4-4-4-4-5-5-5-5-5-5-5-5--------------
------------------------------------------------------------------------------
         way to go...

TOP cifras de Alkaline Trio

  1. Sorry About That
  2. Radio
  3. Sadie
  4. Clavicle
  5. Time To Waste
  6. Hell Yes
  7. My Little Needle
  8. Fuck You Aurora
  9. Burn
  10. This Could Be Love

Pela Web