Cifras Web
Allana Macedo

Fora do Comum

Allana Macedo

34 acessos

Intro:

                 Em         C9            G/B            D/F#
E|--------------------------------------8/10-10-10-10-10/8--8--8--7-8--7-3|
B|-------------8-7-8-7-8--7------------10/12-12-12-12-12/10-10-10-9-10-9-5|
G|--------------------------9-7-7-9-7-------------------------------------|
D|-4h5-4------------------------------------------------------------------|
A|-------7-5-7------------------------------------------------------------|
E|------------------------------------------------------------------------|


     Em         C9            G/B           D/F#
E|--------------------------8/10-10-10-10-10/8------------------|
B|-8-7-8-7-8--7------------10/12-12-12-12-12/10--8p7------------|
G|--------------9-7-7-9-7----------------------------9-7h9-7----|
D|--------------------------------------------------------------|
A|--------------------------------------------------------------|
E|--------------------------------------------------------------|



Em                 C9
Nossa história é longa
           G/B
Mas eu resumi
                  D/F#
Perguntas sem respostas

Te respondo sim

Em             C9
Entrada sem saída
           G/B
Do meu coração
               D/F#
Depois de enfetiçado nessa ilusão
Em               C9
Eu sei que pra você
             G/B
É fácil superar
             D/F#
Pra outra pessoa

Em qualquer lugar

Em             C9
A tática perfeita
           G/B
Eu vou elaborar
             D/F#
Em outra ocasião
                C9
A gente se reencontrar
      D/F#
Se amar

E|-2-3p2---------|
B|-------5-3-3/5-|
G|---------------|
D|---------------|
A|---------------|
E|---------------|



Refrão:
Em                 C9
Você brincou com fogo
                G/B
E depois caiu fora
               D/F#
Saiu da minha vida

O que que eu faço agora
Em               C9            G/B
Menina estou a ponto de enlouquecer
          D/F#
Fora do comum não posso te esquecer
Solo:

                 Em         C9            G/B            D/F#
E|--------------------------------------8/10-10-10-10-10/8--8--8--7-5-3|
B|-------------8-7-8-7-8--7------------10/12-12-12-12-12/10-10-10-9-7-5|
G|--------------------------9-7-7-9-7----------------------------------|
D|-4h5-4---------------------------------------------------------------|
A|-------7-5-7---------------------------------------------------------|
E|---------------------------------------------------------------------|

     Em         C9            G/B           D/F#
E|--------------------------8/10-10-10-10-10/8--8--8--|
B|-8-7-8-7-8--7------------10/12-12-12-12-12/10-10-10-|
G|--------------9-7-7-9-7-----------------------------|
D|----------------------------------------------------|
A|----------------------------------------------------|
E|----------------------------------------------------|

TOP cifras de Allana Macedo

  1. Fora do Comum
  2. Chega Chora
  3. Noite Mais Fria Dos Ultimos Tempos
  4. Pra Você
  5. Sem Você
  6. 12 Cartas
  7. Lendas e Misterios
  8. Direitos Iguais
  9. Pen Drive do Meu Ex

Pela Web