Cifras Web
Allana Macedo

Pra Você

Allana Macedo

11 acessos


Intro: D  G  D  D5(9)  G
E|-----5---8---6---5-----------------------------|
B|-------------------6----5---3------------------|
G|-3/5---5---5---5------5---5---5----------------|
D|-----------------------------------------------|
A|-----------------------------------------------|
E|-----------------------------------------------|



E|-----5---8---6---5-----------------------------|
B|-------------------6--5-3-1--------------------|
G|-3/5---5---5---5------5-3-2--------------------|
D|-----------------------------------------------|
A|-----------------------------------------------|
E|-----------------------------------------------|



E|-3/5-5\3-1-3-5~--5-5\3-1-3---------------------|
B|-----------------------------------------------|
G|-3/5-5\3-2-3-5~--5-5\3-2-3---------------------|
D|-----------------------------------------------|
A|-----------------------------------------------|
E|-----------------------------------------------|



                    D
Eu quero ser pra você
                     G
A alegria de uma chegada
                   Bm
Clarão trazendo o dia
                G5(7M)
Iluminando a sacada

                    D
Eu quero ser pra você
                G
A confiança o que te faz
                    Bm
Te faz sonhar todo dia
                  G
Sabendo que pode mais

Bm                    A5(9)
 Eu quero estar do seu lado
                G
Encontro inesperado
                 D
O arrepio de um beijo bom
Bm                A5(9)           G
Eu quero ser tua paz a melodia capaz
            A5(9)
De fazer você dançar

Refrão:
                    D
Eu quero ser pra você
            G
A lua iluminando o sol
                    Bm
Quero acordar todo dia
                      A5(9)
Pra te fazer todo o meu amor

                    D
Eu quero ser pra você
                  G
Braços abertos a te envolver
                  Bm
E a cada novo sorriso teu
                  A5(9)   G  D
Serei feliz por amar você

(Repete tudo)

Refrão:
                    D
Eu quero ser pra você
            G
A lua iluminando o sol
                    Bm
Quero acordar todo dia
                      A5(9)
Pra te fazer todo o meu amor

                    D
Eu quero ser pra você
                  G
Braços abertos a te envolver
                  Bm
E a cada novo sorriso teu
                  A5(9)   G  D
Serei feliz por amar você

G                   A5(9)
  Se eu vivo pra você
G                    A5(9)
  Se eu canto pra você
       Bm  A5(9) D  Em7 D5/F#  G  A5(9)
Pra você
Solo:

E|-----------------------------------------------|
B|-6-6-6p5---5-6---------------------------------|
G|---------7-------------------------------------|
D|-----------------------------------------------|
A|-----------------------------------------------|
E|-----------------------------------------------|



E|-------5-6-5h6p5---5-5/6-6/8--8--8--8\6-6\5-5--|
B|-8-8-8-----------8--------------10-10\8-8\6-6--|
G|-----------------------------------------------|
D|-----------------------------------------------|
A|-----------------------------------------------|
E|-----------------------------------------------|



E|-----------------------------------------------|
B|-6p5-3-----------------------------------------|
G|-------5---3---2-3--3-3-3p2--------------------|
D|---------3---3--------------5-3-2--------------|
A|-----------------------------------------------|
E|-----------------------------------------------|



Refrão:
                    D
Eu quero ser pra você
            G
A lua iluminando o sol
                    Bm
Quero acordar todo dia
                      A5(9)
Pra te fazer todo o meu amor

                    D
Eu quero ser pra você
                  G
Braços abertos a te envolver
                  Bm
E a cada novo sorriso teu
                  A5(9)   G  D
Serei feliz por amar você

E|---8p6---6p5----5------------------------------|
B|-------------h8---h8---8p6---6---8-------------|
G|-5-----5-------------5-----5---5---------------|
D|-----------------------------------------------|
A|-----------------------------------------------|
E|-----------------------------------------------|



D                   G
Eu quero ser pra você
                    Bm
Eu quero ser pra você
       A5(9)
Pra você

TOP cifras de Allana Macedo

  1. Fora do Comum
  2. Chega Chora
  3. Noite Mais Fria Dos Ultimos Tempos
  4. Pra Você
  5. Sem Você
  6. 12 Cartas
  7. Lendas e Misterios
  8. Direitos Iguais
  9. Pen Drive do Meu Ex

Pela Web