Cifras Web
Allison

80s

Allison

9 acessos

 Intro-verso
   guitarra 1
 Eb|------------------------------------|
 Bb|------------------------------------|
 Gb|------------------------------------|
 Db|-2222-222---------------------------|
 Ab|-0000-000-2222-222-4444-444-2222-222|
 Eb|----------0000-000-2222-222-0000-000|x2
     .................................PM 

   guitarra 2
 Eb|--------14--14------------12--12----------10-10---------9--9----|
 Bb|10/12-10--10---10-10/12-10--10---10-9/10-9--9---9-9/10-9-10--10-|
 Gb|----------------------------------------------------------------|
 Db|----------------------------------------------------------------|
 Ab|----------------------------------------------------------------|
 Eb|----------------------------------------------------------------|x3

 pre-coro
   guitarra 1
 Eb|-----------------------------------|
 Bb|-----------------------------------|
 Gb|---2---2--2---7---7--7-22222-4-6-7-|
 Db|--2---2--2---7---7--7--22222-4-6-7-|
 Ab|-0---0------5---5------00000-2-4-5-|
 Eb|-----------------------------------|

   guitarra 2
 Eb|---------14--14------------12--12----------10-10---------9--9----|
 Bb|-10/12-10--10---10-10/12-10--10---10-9/10-9--9---9-9/10-9-10--10-|
 Gb|-----------------------------------------------------------------|
 Db|-----------------------------------------------------------------|
 Ab|-----------------------------------------------------------------|
 Eb|-----------------------------------------------------------------|

 coro
   guitarra 1
 Eb|-----------------|
 Bb|-----------------|
 Gb|-2222------------|
 Db|-2222-22-4444-22-|
 Ab|-0000-22-4444-22-|
 Eb|------00-2222-00-|x4 

 Eb|------------------|
 Bb|------------------|
 Gb|-2222222244444444-|
 Db|-2222222244444444-|
 Ab|-0000000022222222-|
 Eb|------------------|

   guitarra 2
 Eb|---------14--14------------12--12----------10-10---------9--9----|
 Bb|-10/12-10--10---10-10/12-10--10---10-9/10-9--9---9-9/10---10--10-|
 Gb|-----------------------------------------------------------------|
 Db|-----------------------------------------------------------------|
 Ab|-----------------------------------------------------------------|
 Eb|-----------------------------------------------------------------|x2

post-coro
   guitarra 1
 Eb|-----------|
 Bb|-----------|
 Gb|-22-----22-|
 Db|-22-----22-|
 Ab|-00-----00-|
 Eb|-----------|

   guitarra 2
 Eb|---------14--14------------12--12----------10-10---------9--9----|
 Bb|-10/12-10--10---10-10/12-10--10---10-9/10-9--9---9-9/10-9-10--10-|
 Gb|-----------------------------------------------------------------|
 Db|-----------------------------------------------------------------|
 Ab|-----------------------------------------------------------------|
 Eb|-----------------------------------------------------------------|

 verso
   guitarra 1
 Eb|------------------------------------|
 Bb|------------------------------------|
 Gb|------------------------------------|
 Db|-2222-222---------------------------|
 Ab|-0000-000-2222-222-4444-444-2222-222|
 Eb|----------0000-000-2222-222-0000-000|x2
     .................................PM 

   guitarra 2
 Eb|---------14--14------------12--12----------10-10---------9--9----|
 Bb|-10/12-10--10---10-10/12-10--10---10-9/10-9--9---9-9/10-9-10--10-|
 Gb|-----------------------------------------------------------------|
 Db|-----------------------------------------------------------------|
 Ab|-----------------------------------------------------------------|
 Eb|-----------------------------------------------------------------|x3

 pre-coro
   guitarra 1
 Eb|-----------------------------------|
 Bb|-----------------------------------|
 Gb|---2---2--2---7---7--7-22222-4-6-7-|
 Db|--2---2--2---7---7--7--22222-4-6-7-|
 Ab|-0---0------5---5------00000-2-4-5-|
 Eb|-----------------------------------|

   guitarra 2
 Eb|---------14--14------------12--12----------10-10---------9--9----|
 Bb|-10/12-10--10---10-10/12-10--10---10-9/10-9--9---9-9/10-9-10--10-|
 Gb|-----------------------------------------------------------------|
 Db|-----------------------------------------------------------------|
 Ab|-----------------------------------------------------------------|
 Eb|-----------------------------------------------------------------|

 coro
   guitarra 1
 Eb|-----------------|
 Bb|-----------------|
 Gb|-2222------------|
 Db|-2222-22-4444-22-|
 Ab|-0000-22-4444-22-|
 Eb|------00-2222-00-|x4 

 Eb|------------------|
 Bb|------------------|
 Gb|-2222222244444444-|
 Db|-2222222244444444-|
 Ab|-0000000022222222-|
 Eb|------------------|

   guitarra 2
 Eb|---------14--14------------12--12----------10-10---------9--9----|
 Bb|-10/12-10--10---10-10/12-10--10---10-9/10-9--9---9-9/10-9-10--10-|
 Gb|-----------------------------------------------------------------|
 Db|-----------------------------------------------------------------|
 Ab|-----------------------------------------------------------------|
 Eb|-----------------------------------------------------------------|x2

post-coro2
   guitarra 1
 Eb|----|
 Bb|----|
 Gb|-22-|
 Db|-22-|
 Ab|-00-|
 Eb|----|

   guitarra 2
 Eb|---------14--14------------12--12----------10-10---------9--9----|
 Bb|-10/12-10--10---10-10/12-10--10---10-9/10-9--9---9-9/10-9-10--10-|
 Gb|-----------------------------------------------------------------|
 Db|-----------------------------------------------------------------|
 Ab|-----------------------------------------------------------------|
 Eb|-----------------------------------------------------------------|

 coro x2
   guitarra 1
 Eb|-----------------|
 Bb|-----------------|
 Gb|-2222------------|
 Db|-2222-22-4444-22-|
 Ab|-0000-22-4444-22-|
 Eb|------00-2222-00-|x4 

 Eb|------------------|
 Bb|------------------|
 Gb|-2222222244444444-|
 Db|-2222222244444444-|
 Ab|-0000000022222222-|
 Eb|------------------|

   guitarra 2
 Eb|---------14--14------------12--12----------10-10---------9--9----|
 Bb|-10/12-10--10---10-10/12-10--10---10-9/10-9--9---9-9/10-9-10--10-|
 Gb|-----------------------------------------------------------------|
 Db|-----------------------------------------------------------------|
 Ab|-----------------------------------------------------------------|
 Eb|-----------------------------------------------------------------|x2

post-coro2
   guitarra 1
 Eb|----|
 Bb|----|
 Gb|-22-|
 Db|-22-|
 Ab|-00-|
 Eb|----|

   guitarra 2
 Eb|---------10--10------------9--9----------10-10---------9--9----|
 Bb|-10/12-10--10---10-10/12-10-10--10-9/10-9--9---9-9/10-9-10--10-|
 Gb|---------------------------------------------------------------|
 Db|---------------------------------------------------------------|
 Ab|---------------------------------------------------------------|
 Eb|---------------------------------------------------------------|

TOP cifras de Allison

  1. Llama Por Favor
  2. Me Cambi
  3. Perdido
  4. Addissi
  5. Me Cambio
  6. Aqui
  7. Mi Negra
  8. Addisi
  9. Fragil
  10. Memorama

Pela Web