Cifras Web
Allison

Addisi

Allison

10 acessos

    Todo El Tiempo Voy cambiando
    Sin saber Que Esta Pasando
1|------------------------------------------------------|
0|------------------------------------------------------|
3|--------------222222--444444--000000---| (Bajo--------|
2|--000000----------------------------------------------|
  Pero Sigo Avanzando Viviendo Sin....
1|--------------------------------------------------|
0|--------------------------------------------------|
3|--------------222222--444444--0~------------------|
2|--000000------------------------------------------|
   Ti

1|-----------------------------------------------------|
0|-----------------------------------------------------|
3|-----------------------------------------------------|
2|--2--------------------------------------------------|  (Guitarra)
5|--2--------------------------------------------------|
4|--0--------------------------------------------------|


-------------------- solo batería ------------------

       Puente / Bridge:

G |-------------------------------------------------------|
D |-------------------------------------------------------|
A |--------------222222--444444--xx0xx0xx0-00----| (Bajo--|
E |--000000-----------------------------------------------|
                                             (x2)

Verso

 Yo Ya Estoy Pinche Cansado
    De Andarte Esperando
G |-------------------------------------------------------|
D |-------------------------------------------------------|
A |--------------222222--444444--000000---| (Bajo---------|
E |--000000-----------------------------------------------|

   Ahora Tengo Muchas Ganas
    De ir Por Ti
1|-----------------------------------------------------|
0|-----------------------------------------------------|
3|---------------222222--444444--00-00-----------------|
2|--000000---------------------------------------------|

e|-------------------------------------|
B|-------------------------------------|
G|-----------------------22-22---------|
D|-----------------------22-22---------| (Guitarra)"escuchen la rola"
A|-----------------------00-00---------|   lo mismo hace el bajo, pero solo
E|-------------------------------------| los ceros de A
PM                          ** **
   Tengo Ganas De Abrazarte
    Y Decirte Que Te Quiero
G |-------------------------------------------------------|
D |-------------------------------------------------------|
A |--------------222222--444444--000000-------------------|
E |--000000-----------------------------------------------|
   Y Que Estoy Hasta La Madre
    De No Estar Contigo

Coro:
  No Me Importa Lo Que Digan Tus Amigas
  No Soy Malo Ni Muy Bueno Pero Quiero Estar Contigo
  Sembrando Un Mundo Nuevo Donde Tenga Un Buen De Amigos
  Quedate A Mi Lado Te Lo Pido Por Favor
G |-----------------------------------------------------|
D |-----------------------------------------------------|
A |--------------222222--444444—0000--2222--------------|
E |--000000---------------------------------------------|
                                                     (x2)
G |--------------------------------|
D |--------------------------------|
A |--------------------------------|
E |-xx0--xx0--xx00--xx00-----------|


   Puente / Bridge:
G |-------------------------------------------------------|
D |-------------------------------------------------------|
A |--------------222222--444444--xx0xx0xx0-00----| (Bajo--|
E |--000000-----------------------------------------------|
PM                                                     **   **   **

   Puente #2
G |--------------------|-----------------------------------------------|
D |--------------------|-----------------------------------------------|
A |--2222-2222-2222222-|-2-4-6-7---4-6-7-9---0-2-4-6-------------------|
E |--------------------|-------------------------------0000-000--------|
                       De aki pa aya c repite 3 veces  Y…    (x3)

Y la 4ta vez termina no en 0 sino en 8 de “La” (A)

Coro
   No Me Importa Lo Que Digan Tus Amigas
   No Soy Malo Ni Muy Bueno Pero Quiero Estar Contigo
   Sembrando Un Mundo Nuevo Donde Tenga Un Buen De Amigos
   Quedate A Mi Lado Te Lo Pido Por Favor

G |-----------------------------------------------------|
D |-----------------------------------------------------|
A |--------------222222--444444--0000--2222-------------|
E |--000000---------------------------------------------|

   Te Lo Pido Por Favor (por Favooor)
G |---------------------------------------------------------------|
D |---------------------------------------------------------------|
A |---------------2222222222--4444444444--00000-22222-------------|
E |--0000000000---------------------------------------------------|
Fin                                                         (x2)

G |-----------------------------------------------------------------|
D |-----------------------------------------------------------------|
A |--xx0(x4)--xx2(x4)--xx4(x4)—xx6(x4)-/7-7-------------------------|
E |-----------------------------------------------------------------|
                         Te Lo Pido Por Favor

Hola, soy Paul, esta es mi....x tab ke hago, ojala les guste, estoy 99.9% seguro ke esta 
correcta, alguna duda... corrijanla, aunke no creo ke hayan errores,.....ok,hay les 
y Have fun!!!!!!!

TOP cifras de Allison

  1. Llama Por Favor
  2. Me Cambi
  3. Perdido
  4. Addissi
  5. Me Cambio
  6. Aqui
  7. Mi Negra
  8. Addisi
  9. Fragil
  10. Memorama

Pela Web