Cifras Web
Allman Brothers Band

Cant Lose What You Never Had

Allman Brothers Band

19 acessos


E|------------------------------------------------------------------------|
B|-----------------------------------------------------------10--10-10\---|
G|---------10-------------------------------------10---------10--10-10\---|
D|-10-12--------12-----10----10----------10-12-------12-------------------|
A|------------------------12----------------------------------------------|
E|-------------------------------13b14------------------------------------|


|--------------------------------------------------------------------------|
|--------------------------------------------------------------------------|
|---------10---------------------------------------------------------------|
|-10-12-------12-----10----10-----------12-10---10-------------------------|
|-----------------------12--------------------12------12-10---10-----------|
|-------------------------------13b14-----------------------13-------10----|

TOP cifras de Allman Brothers Band

  1. Soulshine
  2. Its Not My Cross To Bear
  3. Seven Turns Intro
  4. Ain't Wastin' Time No More
  5. Jessica Intro
  6. Good Clean Fun
  7. Rambling Man
  8. Midnight Rider
  9. Old Before My Time Intro
  10. Cant Lose What You Never Had

Pela Web