Cifras Web
Allman Brothers Band

Come On In My Kitchen

Allman Brothers Band

13 acessos

Intro:

E|-------------------------------------------------------------|
B|-------------------------------------------------------------|
G|--2/3\2-0--2/3\2-2/3\2-2/3\2-0--2/3\2-0-12/--2/3\2-0---------|
D|-----------------------------------------------------0-3/4/5-|
A|-------------------------------------------------------------|
E|-------------------------------------------------------------|



E|------------------------------/10-/10-/10-/10-/10-/10\-------|
B|------------------------------/11-/11-/11-/11-/11-/11\-------|
G|--2/3\2-0--2/5--2/3-0----------------------------------------|
D|----------------------0-3/5\---------------------------------|
A|-------------------------------------------------------------|
E|-------------------------------------------------------------|



E|-------x-6-6-x-6-6-------------------------------------------|
B|--3-x---------------6h3-6-x-6-6---3-4-5-6-5-4-3--------------|
G|-------------------------------------------------------------|
D|-------------------------------------------------------------|
A|-------------------------------------------------------------|
E|-------------------------------------------------------------|



E|-------------------------------------------------/10---------|
B|--/6--/5--/4----/3-------------------------------------------|
G|-------------------------------------------------------------|
D|-------------------------------1/3\1-------------------------|
A|--/8--/7--/6----/5-------------------------------------------|
E|-----------------------5/6/3-------------5/6/3---------------|


Ponte:

E|------------------------------------/10----------------------|
B|--6/8-6/8--6/8\6-3-------------------------------------------|
G|--------------------5/7\5-3----------------------------------|
D|--3/5-3/5--3/5\3-0-----------5-------------------------------|
A|--------------------3/5\3-1----------------------------------|
E|-----------------------------3-------------------------------|


G                            D
You better come on into my kitchen,
          C                        G    (Ponte)
cause it's sure to be raining outdoors.
             G
When a woman's in trouble,

everybody puts her down
        C
she look for her good man,
        D#
Lord he can't be found.
              G
You better come on
            D
into my kitchen,
              C                   G       (Ponte)
cause it's going to be raining outdoors.
    G
There's a cold wind blowin',

leaves tremblin' on the trees,
                C
don't you know that that good girl
              D#
ya she's leaving me.
               G
You better come on
           D
into my kitchen,
        C                        G         (Ponte)
cause it's going to be raining outdoors.
           G
The woman I've been lovin'

left with my best friend,
             C
that joker got lucky,
           D#
stole her back again.
             G
You better come on
           D
into my kitchen,
           C                      G       (Ponte)
cause it's going to be raining outdoors.

(Solo)

                G
Well that good girl's leaving,

she ain't coming back,
            C                   D#
took her last nickel from her notion sack
         G
You better come on
         D
into my kitchen,
      C                           G        (Ponte)
cause it's going to be raining outdoors.
     G
Mama's dead and gone,

father's no wheres to be,
        C
I ain't got nobody
          D#
to love and care for me.
              G
You better come on
            D
into my kitchen,
           C                       G       (Ponte)
cause it's going to be raining outdoors.
           C                       G       (Ponte)
Yes, it's going to be raining outdoors.
            C                      G       (Ponte)
Yes, it's going to be raining outdoors

TOP cifras de Allman Brothers Band

  1. Soulshine
  2. Its Not My Cross To Bear
  3. Seven Turns Intro
  4. Ain't Wastin' Time No More
  5. Jessica Intro
  6. Good Clean Fun
  7. Rambling Man
  8. Midnight Rider
  9. Old Before My Time Intro
  10. Cant Lose What You Never Had

Pela Web