Cifras Web
Amber Pacific

Fall Back Into My Life

Amber Pacific

10 acessos

Tabbed by: Bair
Email: *

Tuning: Standard


Intro:

e|------------------------------------------|
B|------------------------------------------|
G|--44444444--------------------------------|
D|--44444444--22222222--66666666--22222222--|
A|--22222222--22222222--66666666--22222222--|
E|------------00000000--44444444--00000000--|


Verse:

e|---------------------------------------------------------------|
B|---------------------------------------------------------------|
G|--44444444-----------------------------------------------------|
D|--44444444--44444444--66666666--22222222-----------------------|
A|--22222222--44444444--66666666--22222222-----------------------|
E|------------22222222--44444444--00000000-----------------------|

"I know it's not enought to say...."


e|---------------------------------------------------------------|
B|---------------------------------------------------------------|
G|--44444444-----------------------------------------------------|
D|--44444444--44444444--66666666--222222--44---------------------|
A|--22222222--44444444--66666666--222222--44---------------------|
E|------------22222222--44444444--000000--22---------------------|


Chorus:

e|---------------------------------------------------------------|
B|---------------------------------------------------------------|
G|--------------4444--------------4444---------------------------|
D|--6666--2222--4444--4444--2222--4444--44444444--(X2)-----------|
A|--6666--2222--2222--4444--2222--2222--44444444-----------------|
E|--4444--0000--------2222--0000--------22222222-----------------|

"But if you fall back into my life...."

Then:
--Intro
--Chorus

Interlude:

e|---------------------------------------------------------------|
B|---------------------------------------------------------------|
G|--444444-------------------------------------------------------|
D|--444444--222222--666666--444444-------------------------------|
A|--222222--222222--666666--444444-------------------------------|
E|----------000000--444444--222222-------------------------------|



e|---------------------------------------------------------------|
B|---------------------------------------------------------------|
G|--444444-------------------------------------------------------|
D|--444444--222222--666666--444444--2-2-2-2-2-2--4---------------|
A|--222222--222222--666666--444444--2-2-2-2-2-2--4---------------|
E|----------000000--444444--222222--0-0-0-0-0-0--2---------------|


End on Chorus

TOP cifras de Amber Pacific

  1. Rule 76
  2. Summer In B
  3. Everything We Were
  4. Gone So Young
  5. Thoughts Before Me
  6. Here We Stand
  7. You're Only Young Once
  8. Always You
  9. Cant Hold Back
  10. Dear This Has Always Been About Standing Up For What You Believe In Intro

Pela Web