Cifras Web
Amber Pacific

Postcards

Amber Pacific

11 acessos

++++++++++++++++++++++++++++
++++++++++++++++++++++++++++

Tuning: EADG

Here's the tab for this awesome song
and I bet this is 100% correct
Now enjoy and please rate :D

Intro
1.
G|-----------------------------------------------------------------------|
D|-----------------------------------------------------------------------|
A|-44-444-444-444-433-333-333-333-311-111-111-111-1----------------------|--x2
E|--------------------------------------------------xx-4-xx-4-xx-4---642-|

Verse
"Ill quote a clever line like hope"
2.
G|---------------------------------------------------------------------------|
D|---------------------------------------------------------------------------|
A|-44444444-44444444-33333333-33333333-11111111-11111111---------------------|
E|-------------------------------------------------------xx-4-xx-4-xx-4-xx-4-|

"As always as Ill take the praise"
3.
G|---------------------------------------------------------------------------|
D|----------46664333----------34443111---------------------------------------|
A|-44444444----------33333333----------11111111-11111111---------------------|
E|-------------------------------------------------------xx-4-xx-4-xx-4-xx-4-|

Pre-Chorus
4.
G|--------------------------------|
D|--------------------------------|
A|--------------------------------|
E|-2-2-2-2-2-2-2-2-4-4-4-4-4-4-4x-|

Chorus
"I need you here with me..."
5.
G|---------------------------------------------------------|
D|---------------------------------------------------------|
A|-44-444-44-444---------------11-111-11-111---------------|--x2
E|---------------44-444-44-444---------------22-222-22-222-|

"When Im without you..."
6.
G|----------------------------------------------------|
D|----------------------------------------------------|
A|-4444-4~--------------------------------------------|
E|------------4444-4~----2222-2~----44444444-44444444-|

Outro
7.
G|-----------------------------------------------------------------------|
D|-----------------------------------------------------------------------|
A|-44-444-444-444-433-333-333-333-311-111-111-111-1----------------------|
E|--------------------------------------------------xx-4-xx-4-xx-4---642-|

Verse
"You can break my heart open"
8.
G|---------------------------------------------------------------------------|
D|---------------------------------------------------------------------------|
A|-4x----------------33333333-33333333-11111111-11111111---------------------|
E|-------------------------------------------------------xx-4-xx-4-xx-4-xx-4-|

"But the next time you say..."
9.
G|---------------------------------------------------------------------------|
D|----------46664333----------34443111---------------------------------------|
A|-44444444----------33333333----------11111111-11111111---------------------|
E|-------------------------------------------------------xx-4-xx-4-xx-4-xx-4-|

Pre-Chorus
"What I am..."
10.
G|-----------------------------------|
D|-----------------------------------|
A|-----------------------------------|
E|-22222222-22222222-44444444-44444x-|

Chorus
"I need you here with me..."
11.
G|---------------------------------------------------------|
D|---------------------------------------------------------|
A|-44-444-44-444---------------11-111-11-111---------------|
E|---------------44-444-44-444---------------22-222-22-222-|

"When Im without you..."
12.
G|------------------------------------------|
D|------------------------------------------|
A|-4444-4~----------------------------------|
E|------------4444-4~----2222-2~----4444-4~-|

Break

2:11
13.
G|----------------------------------|
D|----------------------------------|
A|----------------------------------|
E|-22-222-222-222-222-222-222-222-2-|

14.
G|-------13-13-------13-13----13-------13-13-------13-13-------|
D|-11-11-------11-11-------11----10-10-------10-10-------10-11-|
A|-------------------------------------------------------------|
E|-------------------------------------------------------------|

15.
G|------------------------------------|
D|------------------------------------|
A|------------------------------------|
E|-22-222-222-222-2-22222222-2222222x-|

Chorus
"I need you here with me..."
16.
G|---------------------------------------------------------|
D|---------------------------------------------------------|
A|-44-444-44-444---------------11-111-11-111---------------|
E|---------------44-444-44-444---------------22-222-22-222-|

"When Im without you..."
17.
G|-------------------------------------------------------------|
D|-------------------------------------------------------------|
A|-44-444-44-444-----------------------------------------------|
E|---------------44-444-44-444-22-222-22-222-44444444-44444444-|

"Remember when I said..."
18.
G|-------------------------------------------------------------------------|
D|-------------------------------------------------------------------------|
A|-44444444-44444444-------------------11111111-11111111-------------------|
E|-------------------44444444-44444444-------------------22222222-22222222-|

"When Im without you..."
19.
G|------------------------------------------------|
D|------------------------------------------------|
A|-44x----44x-------------------------------------|
E|---------------44x----44x----2222-2~----4444-4~-|

Outro
20.
G|------------|
D|------------|
A|-4444-------|
E|------2-44x-|

Lyrics:

I'll quote a clever line like "hope"
I'll take the final words you wrote
To make them feel like bliss...
As always as I'll take the praise
I have a way with making things
Scripted like a song that makes you sting

I need you here with me
So here's our heart to heart
On the back of postcards sent from California
Remember when I said
Just stay what you are
I know you hate the feeling when I walk away
When I'm without you
I'm not the man that I know I can be
Because you're not here with me

You can break my heart open
And ruin my epic ending
Your hand like a noose around my neck
But the next time you say "Promise me"
I'll make one for myself to always stay
(what I am...)

+++++++++++++++++++++++++++++++++
| RaiLeff                       |
| [email protected]* |
+++++++++++++++++++++++++++++++++

TOP cifras de Amber Pacific

  1. Rule 76
  2. Summer In B
  3. Everything We Were
  4. Gone So Young
  5. Thoughts Before Me
  6. Here We Stand
  7. You're Only Young Once
  8. Always You
  9. Cant Hold Back
  10. Dear This Has Always Been About Standing Up For What You Believe In Intro

Pela Web