Cifras Web
Amber Pacific

Temporary

Amber Pacific

11 acessos

Tabbed by: Bair
Email: B*

Tuning: Standard


Intro:

e|---------------------------------------------------------------|
B|---------------------------------------------------------------|
G|--4--------------4444------------------------------------------|
D|--4--(Let Ring)--4444--4444444--2222--4444444------------------|
A|--2--------------2222--4444444--2222--4444444------------------|
E|-----------------------2222222--0000--2222222------------------|


Verse:

e|---------------------------------------------------------------|
B|---------------------------------------------------------------|
G|--44444444-----------------------------------------------------|
D|--44444444--22222222--66666666--44444444--(X2)--2222--4444-----|
A|--22222222--22222222--66666666--44444444--------2222--4444-----|
E|------------00000000--44444444--22222222--------0000--2222-----|

"Its in my heart, I felt your world...."

Chorus:

e|---------------------------------------------------------------|
B|---------------------------------------------------------------|
G|--4444---------------------------------------------------------|
D|--4444--4444444--2222--4444444--(X2)--22--4--------------------|
A|--2222--4444444--2222--4444444--------22--4--------------------|
E|--------2222222--0000--2222222--------00--2--------------------|

"It's just temporary, but give it time...."

-Then Verse
-Then Chorus

interlude:

e|---------------------------------------------------------------|
B|---------------------------------------------------------------|
G|---------------------------------------------------------------|
D|--66666666--2222--444444444444--66666666--2222--4--------------|
A|--66666666--2222--444444444444--66666666--2222--4--------------|
E|--44444444--0000--222222222222--44444444--0000--2--------------|

"Swear you'll live by what you know...."

-Then Chorus
 
2nd Chorus:
e|---------------------------------------------------------------|
B|---------------------------------------------------------------|
G|--6666-----------------------------------------------6---------|
D|--6666--6666666--4444--6666666--(X2)--4444-4444--66--6---------|
A|--4444--6666666--4444--6666666--------4444-4444--66--4---------|
E|--------4444444--2222--4444444--------2222-2222--44------------|

-Then End

TOP cifras de Amber Pacific

  1. Rule 76
  2. Summer In B
  3. Everything We Were
  4. Gone So Young
  5. Thoughts Before Me
  6. Here We Stand
  7. You're Only Young Once
  8. Always You
  9. Cant Hold Back
  10. Dear This Has Always Been About Standing Up For What You Believe In Intro

Pela Web