Cifras Web
Américo Jacomino

Marcha Dos Marinheiros

Américo Jacomino

16 acessos

Primeira Parte:


   Dm				      Am/E				  E7/D
E|-----1-------1---|-1---------------|-----0-------0---|-0---------------|-----0-------0---|
B|-----3-------3---|-3---------------|-----1-------1---|-1---------------|-----3-------3---|
G|-----2-------2---|-2---------------|-----2-------2---|-2---------------|-----1-------1---|
D|-0---------------|-------------0---|-2---------------|-----------------|-0---------------|
A|-----------------|-----2---3-------|-----------------|-----0---2---3---|-----------------|
E|-----------------|-----------------|-----------------|-----------------|-----------------|



 		    Am/C	      A7      A7/E	Dm
E|-0---------------|-----------------|-----------------|-----1-------1---|-1---------------|
B|-3---------------|-----1-------1---|-----2-------2---|-----3-------3---|-3---------------|
G|-1---------------|-----2-------2---|-----0-------0---|-----2-------2---|-2---------------|
D|-----------------|-----2-------2---|-----2-------2---|-0---------------|-------------0---|
A|---------0---2---|-3---------------|-0---------------|-----------------|-----2---3-------|
E|-----4-----------|-----------------|---------0-------|-----------------|-----------------|



   Am/E				      E7      E7/D	E7/C	E7/B	  Am
E|-----0-------0---|-0---------------|-----0-------0---|-----0-------0---|-------------5-5-|
B|-----1-------1---|-1---------------|-----3-------3---|-----3-------3---|-------------5-5-|
G|-----2-------2---|-2---------------|-----1-------1---|-----1-------1---|-------------5-5-|
D|-2---------------|-----2---0-------|-2-------0-------|-----------------|-------------7-7-|
A|-----------------|-------------3---|-----------------|-3-------2-------|-0-----------7-7-|
E|-----------------|-----------------|-----------------|-----------------|-------------5-5-|



E|-5-------5-------|-5---------------|
B|-5-------5-------|-5---------------|
G|-5-------5-------|-5---------------|
D|-7-------7-------|-7---------------|
A|-7-------7-------|-7---------------|
E|-5-------5-------|-5---------------|


Segunda Parte:


 		    C		      E7/B    E7	Am
E|-----------------|-----0-------0---|-----0-------0---|-----0-------0---|-0---------------|
B|-----------------|-----1-------1---|-----3-------3---|-----1-------1---|-1---------------|
G|-----------------|-----0-------0---|-----1-------1---|-----2-------2---|-2---2---1---0---|
D|-----2---1---0---|-----------------|-----------------|-----------------|-----------------|
A|-----------------|-3---------------|-2---------------|-0---------------|-----------------|
E|-----------------|-----------------|---------0-------|-----------------|-----------------|



   Dm/F		    Am/E    Am	      Dm				  Dm      Am/C
E|-----1-------1---|-----0-------0---|-----1-------1---|-1---------------|-----10------8---|
B|-----3-------3---|-----1-------1---|-----3-------3---|-3---------------|-----10------10--|
G|-----2-------2---|-----2-------2---|-----2-------2---|-2---------------|-----10------9---|
D|-3---------------|-2---------------|-0---------------|-----0---2---3-/-|-12------10------|
A|-----------------|---------0-------|-----------------|-----------------|-----------------|
E|-----------------|-----------------|-----------------|-----------------|-----------------|



   E7/B	  Am	    E7/G#				E7	E7/D	  E7/C	  E7/B
E|-----7-------5---|-----4-------4---|-4---------------|-----0-------0---|-----0-------0---|
B|-----9-------5---|-----5-------5---|-5---------------|-----3-------3---|-----3-------3---|
G|-----7-------5---|-----7-------7---|-7---------------|-----1-------1---|-----1-------1---|
D|-9-------7-------|-6---------------|-----0---2---3---|-2-------0-------|-----------------|
A|-----------------|-----------------|-----------------|-----------------|-3-------2-------|
E|-----------------|-----------------|-----------------|-----------------|-----------------|



   Am				      C			E7/B	E7	  Am
E|-----------------|-----------------|-----0-------0---|-----0-------0---|-----0-------0---|
B|-----1-------1---|-1---------------|-----1-------1---|-----3-------3---|-----1-------1---|
G|-----2-------2---|-2---------------|-----0-------0---|-----1-------1---|-----2-------2---|
D|-----2-------2---|-2---2---1---0---|-----------------|-----------------|-----------------|
A|-0---------------|-----------------|-3---------------|-2---------------|-0---------------|
E|-----------------|-----------------|-----------------|---------0-------|-----------------|



 		    Dm/F	      Am/E    Am	Dm
E|-0---------------|-----1-------1---|-----0-------0---|-----1-------1---|-1---------------|
B|-1---------------|-----3-------3---|-----1-------1---|-----3-------3---|-3---------------|
G|-2---2---1---0---|-----2-------2---|-----2-------2---|-----2-------2---|-2---------------|
D|-----------------|-3---------------|-2---------------|-0---------------|-----0---2---3-/-|
A|-----------------|-----------------|---------0-------|-----------------|-----------------|
E|-----------------|-----------------|-----------------|-----------------|-----------------|



   Dm	  Am/C	    E7/B    Am	      Am/C    E7/B	Am	Dm/F	  E7	  E7/D
E|-----10------8---|-----7-------5---|-----8-------7---|-----5-------1---|-----0-------0---|
B|-----10------10--|-----9-------5---|-----10------9---|-----5-------3---|-----3-------3---|
G|-----10------9---|-----7-------5---|-----9-------7---|-----5-------2---|-----1-------1---|
D|-12------10------|-9-------7-------|-10------9-------|-7-------3-------|-2-------0-------|
A|-----------------|-----------------|-----------------|-----------------|-----------------|
E|-----------------|-----------------|-----------------|-----------------|-----------------|



   E7/C	  E7/B	    Am
E|-----0-------0---|-------------5-5-|-5-------5-------|-5---------------|
B|-----3-------3---|-------------5-5-|-5-------5-------|-5---------------|
G|-----1-------1---|-------------5-5-|-5-------5-------|-5---------------|
D|-----------------|-------------7-7-|-7-------7-------|-7---------------|
A|-3-------2-------|-0-----------7-7-|-7-------7-------|-7---------------|
E|-----------------|-------------5-5-|-5-------5-------|-5---------------|


Terceira Parte (Toca 2x):


   		    G7				        C/E
E|-----------------|-----1-------1---|-1---------------|-----0-------0---|-0---------------|
B|-----------------|-----3-------3---|-3---------------|-----1-------1---|-1---------------|
G|-----------------|-----0-------0---|-0---2-------0---|-----0-------0---|-0---------------|
D|-----------------|-----------------|---------3-------|-2---------------|---------0---1---|
A|-----2---1---0---|-----------------|-----------------|-----------------|-----3-----------|
E|-----------------|-3---------------|-----------------|-----------------|-----------------|



   E7		    		      Am/C				  Dm/F
E|-----0-------0---|-0---------------|-----------------|-----------------|-----1-------1---|
B|-----3-------3---|-3---------------|-----1-------1---|-1---------------|-----3-------3---|
G|-----1-------1---|-1---------------|-----2-------2---|-2---2---1---0---|-----------------|
D|-2---------------|-----3---0---2---|-----2-------2---|-2---------------|-3-------0-----2-|
A|-----------------|-----------------|-3---------------|-----------------|-----------------|
E|-----------------|-----------------|-----------------|-----------------|-----------------|



   		    Am/E	      C/E    	      	E7/D
E|-----1-------1---|-----0-------0---|-----0-------0---|-----0-------0---|-----0-------0---|
B|-----3-------3---|-----1-------1---|-----1-------1---|-----3-------3---|-----3-------3---|
G|---------2-------|-----------------|---------0-------|-----------------|-----------------|
D|-3---------------|-2-------------0-|-2---------------|-0---------------|-0-------3-------|
A|-----------------|---------3-------|-----------------|---------2-----3-|-----------------|
E|-----------------|-----------------|-----------------|-----------------|-----------------|


		    		      
P.M.--------------------------------------------------


   Am/C		    		      Dm/F				  Am/E
E|-----------------|-----------------|-----1-------1---|-----1-------1---|-----0-------0---|
B|-----1-------1---|-1---------------|-----3-------3---|-----3-------3---|-----1-------1---|
G|-----2-------2---|-2---2---1---0---|-----------------|---------2-------|-----------------|
D|-----2-------2---|-2---------------|-3-------0-----2-|-3---------------|-2-------------0-|
A|-3---------------|-----------------|-----------------|-----------------|---------3-------|
E|-----------------|-----------------|-----------------|-----------------|-----------------|


  
-----------------------------------------------------|


   C/E		    E7/D				Am
E|-----0-------0---|-----0-------0---|-----0-------0---|-----------------|-----------------|
B|-----1-------1---|-----3-------3---|-----3-------3---|-----1-------1---|-1---------------|
G|---------0-------|-----------------|-----------------|-----2-------2---|-2---------------|
D|-2---------------|-0---------------|-0---------------|-----2-------2---|-2---------------|
A|-----------------|---------2-----3-|-----------------|-0---------------|-----------------|
E|-----------------|-----------------|---------4-------|-----------------|-----------------|


Quarta Parte:


   Am
E|-----------------|-----5-------5---|-5---------------|-----5-------5---|-5---------------|
B|-----------------|-----5-------5---|-5---------------|-----5-------5---|-5---------------|
G|-----------------|-----5-------5---|-5---------------|-----5-------5---|-5---------------|
D|-----------------|-7---------------|-----7-----------|-----------------|-----------------|
A|-------------7---|-----------------|---------7-------|-----------------|-------------7---|
E|-----5---8-------|-----------------|-------------8---|-5---------------|-----5---8-------|



 				      E
E|-----5-------5---|-----5-------5---|-----0-------0---|-0---------------|-----0-------0---|
B|-----5-------5---|-----5-------5---|-----0-------0---|-0---------------|-----0-------0---|
G|-----5-------5---|-----5-------5---|-----1-------1---|-1---------------|-----1-------1---|
D|-7---------------|-----------------|-----------------|-----------------|-2---------------|
A|---------7-------|---------7-------|-----------------|-------------2---|-----------------|
E|-----------------|-8---------------|-0---------------|-----0---4-------|-----------------|




E|-0---------------|-----0-------0---|-0---------------|-----0-------0---|-----0-------0---|
B|-0---------------|-----0-------0---|-0---------------|-----0-------0---|-----0-------0---|
G|-1---------------|-----1-------1---|-1---------------|-----1-------1---|-----1-------1---|
D|-----2-----------|-----------------|-----------------|-2-------0-------|-----------------|
A|---------2-------|-----------------|-------------2---|-----------------|-3-------2-------|
E|-------------4---|-0---------------|-----0---4-------|-----------------|-----------------|



   Am
E|-----5-------5---|-5---------------|-----5-------5---|-5---------------|-----5-------5---|
B|-----5-------5---|-5---------------|-----5-------5---|-5---------------|-----5-------5---|
G|-----5-------5---|-5---------------|-----5-------5---|-5---------------|-----5-------5---|
D|-----------------|-----------------|-7---------------|-----7-----------|-----------------|
A|-0---------------|-------------7---|-----------------|---------7-------|-----------------|
E|-----------------|-----5---8-------|-----------------|-------------8---|-5---------------|



 									  Dm
E|-5-------5-------|-----------------|-----------------|-----------------|-----1-------1---|
B|-5-------5-------|-------------0---|-1---0-----------|-----------------|-----3-------3---|
G|-5-------5-------|-----1---2-------|---------2---1---|-2---0-----------|-----2-------2---|
D|-----------------|-----------------|-----------------|---------3---2---|-0---------------|
A|-----------------|-----------------|-----------------|-----------------|-----------------|
E|-----------------|-----------------|-----------------|-----------------|-----------------|



 		    Dm	    Am/C      E7/B    Am	Am/C    E7/B	  Am	  Dm/F
E|-1---------------|-----10------8---|-----7-------5---|-----8-------7---|-----5-------1---|
B|-3---------------|-----10------10--|-----9-------5---|-----10------9---|-----5-------3---|
G|-2---------------|-----10------9---|-----7-------5---|-----9-------7---|-----5-------2---|
D|-----0---2---3-/-|-12------10------|-9-------7-------|-10------9-------|-7-------3-------|
A|-----------------|-----------------|-----------------|-----------------|-----------------|
E|-----------------|-----------------|-----------------|-----------------|-----------------|



   E7	  E7/D	    E7/C    E7/B      Am
E|-----0-------0---|-----0-------0---|-------------5-5-|-5-------5-------|-5-------X-------|
B|-----3-------3---|-----3-------3---|-------------5-5-|-5-------5-------|-5-------X-------|
G|-----1-------1---|-----1-------1---|-------------5-5-|-5-------5-------|-5-------X-------|
D|-2-------0-------|-----------------|-------------7-7-|-7-------7-------|-7-------X-------|
A|-----------------|-3-------2-------|-0-----------7-7-|-7-------7-------|-7-------X-------|
E|-----------------|-----------------|-------------5-5-|-5-------5-------|-5-------X-------|


Quinta Parte:


   A/C#			    E7/B      A				E	  A
E|-9-------9-----9-|-9-------7-------|-5-------5-----5-|-5-------0-------|-5-------5-----5-|
B|-10------10----10|-10------9-------|-5-------5-----5-|-5-------0-------|-5-------5-----5-|
G|-9-------9-----9-|-9-------7-------|-6-------6-----6-|-6-------1-------|-6-------6-----6-|
D|-11------11----11|-11------9-------|-7-------7-----7-|-7-------2-------|-7-------7-----7-|
A|-----------------|-----------------|-----------------|-----------------|-----------------|
E|-----------------|-----------------|-----------------|-----------------|-----------------|



   	  E/G#	    Bm/F#				Bm			  A
E|-5-------4-------|-2-------2-----2-|-2-------X-------|-7-------7-----7-|-7-------5-------|
B|-5-------5-------|-3-------3-----3-|-3-------X-------|-7-------7-----7-|-7-------5-------|
G|-6-------4-------|-4-------4-----4-|-4-------X-------|-7-------7-----7-|-7-------6-------|
D|-7-------6-------|-4-------4-----4-|-4-------X-------|-9-------9-----9-|-9-------7-------|
A|-----------------|-----------------|-----------------|-----------------|-----------------|
E|-----------------|-----------------|-----------------|-----------------|-----------------|



   E/G#			    E	      E/G#			D/F#	  A/E
E|-4-------4-----4-|-4-------0-------|-4-------4-----4-|-4-------2-------|-0-------0-----0-|
B|-5-------5-----5-|-5-------0-------|-5-------5-----5-|-5-------3-------|-2-------2-----2-|
G|-4-------4-----4-|-4-------1-------|-4-------4-----4-|-4-------2-------|-2-------2-----2-|
D|-6-------6-----6-|-6-------2-------|-6-------6-----6-|-6-------4-------|-2-------2-----2-|
A|-----------------|-----------------|-----------------|-----------------|-----------------|
E|-----------------|-----------------|-----------------|-----------------|-----------------|



 		    A/C#		      G/B	F#/A#			  G
E|-0-------X-------|-9-------9-----9-|-9-------7-------|-6-------6-----6-|-6-------3-------|
B|-2-------X-------|-10------10----10|-10------8-------|-7-------7-----7-|-7-------3-------|
G|-2-------X-------|-9-------9-----9-|-9-------7-------|-6-------6-----6-|-6-------4-------|
D|-2-------X-------|-11------11----11|-11------9-------|-8-------8-----8-|-8-------5-------|
A|-----------------|-----------------|-----------------|-----------------|-----------------|
E|-----------------|-----------------|-----------------|-----------------|-----------------|



   F#				      Bm				  D
E|-2-------2-----2-|-2-------2-------|-7-------7-----7-|-7-------X-------|-10------10----10|
B|-2-------2-----2-|-2-------2-------|-7-------7-----7-|-7-------X-------|-10------10----10|
G|-3-------3-----3-|-3-------3-------|-7-------7-----7-|-7-------X-------|-11------11----11|
D|-4-------4-----4-|-4-------4-------|-9-------9-----9-|-9-------X-------|-12------12----12|
A|-----------------|-----------------|-----------------|-----------------|-----------------|
E|-----------------|-----------------|-----------------|-----------------|-----------------|



 		    A/C#				E7/B		  E
E|-10------X-------|-9-------9-----9-|-9-------X-------|-7-------7-------|-0-------0-------|
B|-10------X-------|-10------10----10|-10------X-------|-9-------9-------|-0-------0-------|
G|-11------X-------|-9-------9-----9-|-9-------X-------|-7-------7-------|-1-------1-------|
D|-12------X-------|-11------11----11|-11------X-------|-9-------9-------|-2-------2-------|
A|-----------------|-----------------|-----------------|-----------------|-----------------|
E|-----------------|-----------------|-----------------|-----------------|-----------------|



   A				      D					  A/C#
E|-5-------5-----5-|-5-------X-------|-10------10----10|-10------X-------|-9-------9-----9-|
B|-5-------5-----5-|-5-------X-------|-10------10----10|-10------X-------|-10------10----10|
G|-6-------6-----6-|-6-------X-------|-11------11----11|-11------X-------|-9-------9-----9-|
D|-7-------7-----7-|-7-------X-------|-12------12----12|-12------X-------|-11------11----11|
A|-----------------|-----------------|-----------------|-----------------|-----------------|
E|-----------------|-----------------|-----------------|-----------------|-----------------|



 		    E7/B	      E			A
E|-9-------X-------|-7-------7-------|-0-------0-------|-5-----------5-5-|-5-------5-------|
B|-10------X-------|-9-------9-------|-0-------0-------|-5-----------5-5-|-5-------5-------|
G|-9-------X-------|-7-------7-------|-1-------1-------|-6-----------6-6-|-6-------6-------|
D|-11------X-------|-9-------9-------|-2-------2-------|-7-----------7-7-|-7-------7-------|
A|-----------------|-----------------|-----------------|-------------7-7-|-7-------7-------|
E|-----------------|-----------------|-----------------|-------------5-5-|-5-------5-------|




E|-5---------------|
B|-5---------------|
G|-6---------------|
D|-7---------------|
A|-7---------------|
E|-5---------------|


Sexta Parte (Final): Repetição da Primeira Parte.

TOP cifras de Américo Jacomino

  1. Marcha Dos Marinheiros

Pela Web