Cifras Web
Amigos de Jesus

O Senhor É Rei

Amigos de Jesus

18 acessos

(intro) Em  G  D Em

Em                    G                         D
 O Senhor é Rei     ,  o Senhor é meu pastor e Rei
Em                    G                         D
 O Senhor é Rei     ,  o Senhor é meu pastor e Rei
Em                       G                      D          C         Em   D
 O Senhor está no céu  ,   o Senhor está no mar,  na extensão do infinito
Em                       G                      D          C         Em     D
 O senhor está no céu  ,   o Senhor esta no mar,  na extensão do infinito (aonde ele está?)

(solo) G  D  E C  D (D9 D4)


 G
E|--------------------------|
B|-17-17-15-17-17p15--------|
G|----------------17/19-19~-|
D|--------------------------|
A|--------------------------|
E|--------------------------|



D
E|---------------------------|
B|-15-15----15--15-----------|
G|-------17--------17p16-17~-|
D|---------------------------|
A|---------------------------|
E|---------------------------|



Em           C                   D
E|-----------------------------------|
B|-------17-18-17p15----17b19r17-15~-|
G|-17-17-------------17--------------|
D|-----------------------------------|
A|-----------------------------------|
E|-----------------------------------|



   ( D9 D4 )
E|--------------------|
B|-17-17-15b17r15-----|
G|----------------17~-|
D|--------------------|
A|--------------------|
E|--------------------|


(refrão)
G            D             Em          C          D    D4
 Está no céu,  está no mar ,  na extensão do infinito
G            D             Em          C          D    D4
 Está no céu,  está no mar ,  na extensão do infinito

Em                        G                D            C         Em   D
  Quando eu vacilar    ,   eu não temerei,  pois o Senhor está comigo
Em                       G                D            C         Em     D
  Quando eu vacilar    ,   eu não temerei,  pois o Senhor está comigo (aonde ele está?)

(refrão)

TOP cifras de Amigos de Jesus

  1. Parabéns Pra Você
  2. Benção do Senhor
  3. Sou Dizimista
  4. Eu Te Exaltarei
  5. Eu Sou o Pão do Céu
  6. Viver Pra Mim É Cristo
  7. Eu Abro Meu Coração
  8. Renova-me
  9. Como És Lindo
  10. Pão da Vida

Pela Web