Cifras Web
Anastasia

Once Upon A December

Anastasia

35 acessos

   Am

E|-----------------
B|-------1-----0---
G|----0-----0-----0   (Intro 4x)
D|-----------------
A|-0---------------
E|-----------------



    Am7       E        A7
E|-0-----0--0--------3--1-----
B|-1--------0--------2-----3--
G|-0--------1--------0-----2--
D|----------2--2--0--2-----2--
A|-0--0-----2--------------0--
E|----------0-----------------

(Dancing bears, painted wings)


     Dm             E
E|-1-----0--------0--------
B|-3--3--3--3-----0--1--0--
G|-2-----2-----2--1--------
D|-0-----2-----------------
A|----------------2--------
E|-------------------------

(Things I almost remember)


     Am7      E        A7
E|-0-----0--0--------0--5---
B|-1--------0--------2-----3
G|-0--------1--------0------
D|-------------2--0--2------
A|-0--0-----2---------------
E|--------------------------

(And a song someone sings)


     Dm             E
E|-1-----0--------0--------
B|-3--3--3--3-----0--1-----
G|-2-----2-----2--1-----2--
D|-0-----2-----------------
A|----------------2--------
E|-------------------------

(Once upon a december)


     A7
E|-3--1--3--1--1--0--0--
B|-2-----2-----2-----2--
G|-0-----0-----0-----0--
D|-2-----2-----2-----2--
A|----------------------
E|----------------------

(Someone holds me safe and warm)


     A7
E|-1--0--0--3--1--1--0--0-
B|-2----------------------
G|-0----------------------
D|-2----------------------
A|------------------------
E|------------------------

(Horses prance through a silver storm)


     A7
E|-3--1--3--1--1--0--0--
B|-2-----2-----2-----2--
G|-0-----0-----0-----0--
D|-2-----2-----2-----2--
A|----------------------
E|----------------------

(Figures dancing gracefuly)



E|-------------0--
B|-1--0--1--0-----
G|----------------
D|----------------
A|----------------
E|----------------

(Across my memories)


    Am7       E        A7
E|-0-----0--0--------3--1-----
B|-1--------0--------2-----3--
G|-0--------1--------0-----2--
D|----------2--2--0--2-----2--
A|-0--0-----2--------------0--
E|----------0-----------------

(Far away, long ago)


     Dm             E
E|-1-----0--------0--------
B|-3--3--3--3-----0--1--0--
G|-2-----2-----2--1--------
D|-0-----2-----------------
A|----------------2--------
E|-------------------------

(Glowing dim as an ember)


     Am7      E        A7
E|-0-----0--0--------0--5---
B|-1--------0--------2-----3
G|-0--------1--------0------
D|-------------2--0--2------
A|-0--0-----2---------------
E|--------------------------

(Things my heart used to know)


     Dm             E
E|-1-----0--------0--------
B|-3--3--3--3-----0--1--0--
G|-2-----2-----2--1--------
D|-0-----2-----------------
A|----------------2--------
E|-------------------------

(Things it yearns to remember)


     Am7      E        A7
E|-0-----0--0--------0--5---
B|-1--------0--------2-----3
G|-0--------1--------0------
D|-------------2--0--2------
A|-0--0-----2---------------
E|--------------------------

(And a song someone sings)


     Dm             E
E|-1-----0--------0--------
B|-3--3--3--3-----0--1-----
G|-2-----2-----2--1-----2--
D|-0-----2-----------------
A|----------------2--------
E|-------------------------

(Once upon a december)

TOP cifras de Anastasia

  1. Viagem Ao Passado
  2. Once Upon A December

Pela Web