Cifras Web
Anathema

Drug-addict

Anathema

11 acessos

by: The...uhhh... guy that typed this?

Key:
Slide- /
Hammer on- h
Pull off- p
Bend- b
Vibrato- v
Roll- R
pm- palm muted

Intro: (palm muted) 

e-------------------------------------------------------------
b-------------------------------------------------------------
g-------------------------------------------------------------
d-----------------------------------------------------5-7-9---
a-9-9--9-9-9--9-9-9-r-7-8-9--9-9--9-9-9--9-9------------------
e-7-7--7-7-7--7-7-7------------7-7--7-7-7--7-7----------------


Intro: (continued)

e------------------------------------------------------------
b------------------------------------------------------------
g------------------------------------------------------------
d------------------------------------------------------------
a-12-12-12-10-10-10-7-7-7-4-4-4-3-3-3------------------------
e-12-12-12-10-10-10-7-7-7-4-4-4-3-3-3------------------------


Verse 1      3x on third time skip the end 5-7-9- and go strait to chorus

e-------------------------------------------------------------
b-------------------------------------------------------------
g-------------------------------------------------------------
d-----------------------------------------------------5-7-9---
a-9-9--9-9-9--9-9-9-r-7-8-9--9-9--9-9-9--9-9------------------
e-7-7--7-7-7--7-7-7------------7-7--7-7-7--7-7----------------


Chorus

e----------------------------------------------------------------
b----------------------------------------------------------------
g----------------------------------------------------------------
d----------------------------------------------------------------
a-5-5-5-5-5-5-5-5-5-5-5-5----------------------------------------
e-3-3-3-3-3-3-3-3-3-3-3-3----------------------------------------

  pm^ ^ ^ ^ ^  ^


e-----------------------------------------------------------------
b-----------------------------------------------------------------
g-----------------------------------------------------------------
d---------------------3-3-3----------------------------3-3--------
a-2-2-2-2-3-3-3-3-1-1-1-2-2-2-2---2-2-2-2-3-3-1-1-2---------------
e-0-0-0-0-1-1-1-1--------0-0-0-0-0-0-0-0-0-1-1------0-------------
 play 2x



e----------------------------------------------------------------
b----------------------------------------------------------------
g----------------------------------------------------------------
d----------------------------------------------------------------
a-5-5-5-5-5-5-5-5-5-5-5-5----------------------------------------
e-3-3-3-3-3-3-3-3-3-3-3-3----------------------------------------

  pm^ ^ ^ ^ ^  ^


e-----------------------------------------------------------------
b-----------------------------------------------------------------
g-----------------------------------------------------------------
d---------------------3-3-3----------------------------3-3--------
a-2-2-2-2-3-3-3-3-1-1-1-2-2-2-2---2-2-2-2-3-3-1-1-2---------------
e-0-0-0-0-1-1-1-1--------0-0-0-0-0-0-0-0-0-1-1------0-------------
 play 2x


verse 2  3x on third time skip the end 5-7-9- and go strait to chorus

e-------------------------------------------------------------
b-------------------------------------------------------------
g-------------------------------------------------------------
d-----------------------------------------------------5-7-9---
a-9-9--9-9-9--9-9-9-r-7-8-9--9-9--9-9-9--9-9------------------
e-7-7--7-7-7--7-7-7------------7-7--7-7-7--7-7----------------


solo        repeat  4 x

e-------------------------------------------------------------
b-----------------------------------------0-------------------
g-------------0----------------------------------------0-0b---
d----------------------------0--------------------------------
a-9-9-9-9-9---9-9-9-9-9---9-9-9-9-9--9-9-9-9-9--9-------------
e-7-7-7-7-7---7-7-7-7-7---7-7-7-7-7--7-7-7-7-7--7-------------


Order:
Intro
Verse 1
Chorus
Verse 2
Chorus
Solo
Verse 3
Chorus
Chorus

That’s it!

TOP cifras de Anathema

  1. Temporary Peace
  2. Inner Silence
  3. Lost Control
  4. Deep
  5. Forgotten Hopes
  6. Flying
  7. They Will Always Die
  8. One Last Goodbye
  9. Leave No Trace
  10. Pressure

Pela Web