Cifras Web
Andragonia

Cold Fire

Andragonia

14 acessos

Cauê

     F                G                Am
E|----------------|----------------|-----------------------------|
B|----------------|----------------|-----------------------------|
G|-------0--------|-------0--------|-------0------5------0-------|
D|-----3-----3----|-----5-----5----|-----7----7------7------7----|
A|---3---------3--|---5---------5--|---7--------7------7------7--|
E|-1--------------|-3--------------|-5---------------------------|


Thiago

     F                G                Am
E|----------------|----------------|-----------------------------|
B|-------0--------|-------0--------|-------0--------------0------|
G|---5-------5----|---7-------7----|---9------9-------9------9---|
D|-3---3-------3--|-5---5-------5--|-7---7------7---7---7------7-|
A|----------------|----------------|-----------------------------|
E|----------------|----------------|-----------------------------|



       F
It was long after midnight
                             Am
When we got to unconditional love
          F
She said, sure, my heart is boundless
                             Am
But don't push my limits too far

C           F
  I said if love was so transcendent
        F
I don't understand these boundaries
          Am
She said, just don't disappoint me
             Am
You know how complex women are

         F
I'll be around
   G                Am
If you don't let me down too far
         F
I'll be around
   G                Am
If you don't let me down

       F
It was just before sunrise
                               Am
When we started on traditional roles
          F
She said, sure, I'll be your partner
                          Am
But don't make too many demands

C            F
  I said, if love has these conditions
        F
I don't understand those songs you love
          Am
She said, this is not a love song
           Am
This isn't fantasy land

  C                        G                 Am
A phosphorescent wave on a tropical sea is a cold fire
    C                           G                  Am
The pattern of moonlight on the bedroom floor is a cold fire
    C                       G                         Am
The flame at the heart of a pawnbroker's diamond is a cold fire
    C                        G                      Am
The look in your eyes as you head for the door is a cold fire

(2x)
         F
I'll be around
   G                Am
If you don't push me down too far
         F
I'll be around
   G                Am
If you don't push me down

(Solo)

  C                        G                 Am
A phosphorescent wave on a tropical sea is a cold fire
    C                           G                  Am
The pattern of moonlight on the bedroom floor is a cold fire
    C                       G                         Am
The flame at the heart of a pawnbroker's diamond is a cold fire
    C                        G                      Am
The look in your eyes as you head for the door is a cold fire

(4x)
         F
I'll be around
   G                Am
If you don't push me down too far
         F
I'll be around
   G                Am
If you don't push me down

Top cifras de Andragonia

  1. Secrets In The Mirror
  2. Draining My Heart
  3. Undead
  4. Cold Fire
  5. The Choice
  6. Silent Screams
  7. Shadowmaker
  8. Guitar Flash

Pela Web